PrimaNota.ru - самый крупный в мире бесплатный архив песенных текстов, аккордов, табулатур и нот


Bz - Friction - таба, видео

Регистрация Запомнить меня
Войти через:  Facebook Google Twitter Vk Yandex Mail.ru

Bz - Friction - таба, видео

Печатать
Просмотров: 174
Авторы музыки: 松本孝弘
Авторы текста: 稲葉浩志
		   Friction                                     


                                                                             B'z
Traccia 1



     W                   W                   W                 
E||-------------------|-------------------|-------------------|
B||-------------------|-------------------|-------------------|
G||-------------------|-------------------|-------------------|
D||-------------------|-------------------|-------------------|
A||-------------------|-------------------|-------------------|
E||-------------------|-------------------|-------------------|


  W                    H          H            H         H          
-------------------|------------------------|----------------------|
-------------------|------------------------|----------------------|
-------------------|--14b--------12b--------|--9b--------7b--------|
-------------------|------------------------|----------------------|
-------------------|------------------------|----------------------|
-------------------|------------------------|----------------------|


   H          H            H         H             H          H          
------------------------|----------------------|------------------------|
------------------------|----------------------|--12---------10---------|
--14b--------12b--------|--9b--------7b--------|--14b--------12b--------|
------------------------|----------------------|------------------------|
------------------------|----------------------|------------------------|
------------------------|----------------------|------------------------|


  H         H            Q    E  E  E  E  Q       W                 
----------------------|------------------------|-------------------|
--7---------5---------|------------------------|-------------------|
--9b--------7b--------|------------------------|-------------------|
----------------------|--4----------------4----|-------------------|
----------------------|--2-------2--2-----2----|-------------------|
----------------------|------------------------|-------------------|


  Q    E  E  E  E  Q       W                   Q    E  E  E  E  Q      
------------------------|-------------------|-------------------------|
------------------------|-------------------|-------------------------|
------------------------|-------------------|-------------------------|
--2----------------2----|-------------------|-------------------------|
--0-------0--0-----0----|-------------------|--5----------------5S----|
------------------------|-------------------|--3-------3--3-----3S----|


  E  E  E  E  Q    E   E     Q    E  E  E  E  Q     
--------------------------|------------------------|
--------------------------|------------------------|
--------------------------|------------------------|
--------------2----2S--4--|--4----------------4----|
--4--4-----4--0----0S--2--|--2-------2--2-----2----|
--2--2-----2--------------|------------------------|


  T  T  T E  E  E  E  E  E  E  T    Q    E  E  E  E  Q     
---------------------------------|------------------------|
--2s-6s-4-3----------------------|------------------------|
-------------4--2----------------|------------------------|
-------------------4--3--2--0----|--4----------------4----|
---------------------------------|--2-------2--2-----2----|
---------------------------------|------------------------|


  E  E  E  E  E  E  Q       Q    E  E  E  E  Q       E  E  E  E  E  E  Q     
-------------------------|------------------------|-------------------------|
-------------------------|------------------------|-------------------------|
-------------------------|------------------------|-------------------------|
-----4--4-----4-----4----|--2----------------2----|-----2--2-----2-----2----|
-----2--2-----2-----2----|--0-------0--0-----0----|-----0--0-----0-----0----|
-------------------------|------------------------|-------------------------|


  Q    E  E  E  E  Q        E  E  E  E  Q    E   E     Q    E  E  E  E  Q     
-------------------------|--------------------------|------------------------|
-------------------------|--------------------------|------------------------|
-------------------------|--------------------------|------------------------|
-------------------------|--------------2----2S--4--|--4----------------4----|
--5----------------5S----|--4--4-----4--0----0S--2--|--2-------2--2-----2----|
--3-------3--3-----3S----|--2--2-----2--------------|------------------------|


  E  E  E  E  E  E  Q       W                   E  E  E  H        E   
-------------------------|-------------------|-----------------------|
-------------------------|-------------------|-----------------------|
-------------------------|-------------------|-----------------------|
-----4--4-----4-----4----|--5----------------|--------0--0--------L--|
-----2--2-----2-----2----|--3----------------|--0-----0--0--------L--|
-------------------------|-------------------|--0-----3--3--------L--|


  W                   E  E  E  H        E     E  E  E  E  E  E  E  E   
-------------------|-----------------------|--------------------------|
-------------------|-----------------------|--------------------------|
-------------------|-----------------------|--------------------------|
--0----------------|--0-----0--0--------L--|--------------------------|
--0----------------|--3-----3--3--------L--|--------------------------|
--2----------------|--1-----1--1--------L--|--0--0--0--0--0--0--0--0--|


  E  E  E  E  E  E  E  E     E  H        Q.        W                 
--------------------------|---------------------|-------------------|
--------------------------|-----8--------L------|-------------------|
--------------------------|--7------------------|-------------------|
-----------------------7--|---------------------|-------------------|
--------------------7-----|---------------------|--3----------------|
--0--0--0--0--0--0--------|---------------------|--1----------------|


  W                   W                   H        E  E  E  E   
-------------------|-------------------|-----------------------|
-------------------|-------------------|-----------------------|
-------------------|-------------------|--0--------------------|
-------------------|--0----------------|--2--------5-----3-----|
--0----------------|--2----------------|--------------0-----0--|
--3----------------|-------------------|-----------------------|


   W                    W                   H        E   E  Q     
--------------------|--------------------|-----------------------|
--------------------|--------------------|-----------------------|
--------------------|--------------------|-----------------------|
--10----------------|--12----------------|--5---------------5----|
---8----------------|--10----------------|--3--------5s--7-------|
--------------------|--------------------|-----------------------|


  H        E    E  Q       W                   W                 
------------------------|-------------------|-------------------|
------------------------|-------------------|-------------------|
------------------------|-------------------|-------------------|
--9----------------9----|-------------------|-------------------|
--7--------9s--11-------|--3----------------|--0----------------|
------------------------|--1----------------|--3----------------|


  W                   H        E  E  E  E      W                 
-------------------|-----------------------|--------------------|
-------------------|-----------------------|--------------------|
-------------------|--0--------------------|--------------------|
--0----------------|--2--------5-----3-----|--10----------------|
--2----------------|--------------0-----0--|---8----------------|
-------------------|-----------------------|--------------------|


   W                   E  E  E  E  E  E  E  E     E  E  E  E  E  E  E  E   
--------------------|--------------------------|--------------------------|
--------------------|--------------------------|--------------------------|
--------------------|--0-----------------------|--------------------------|
--12----------------|--2--3--0--0--4--0--0--0--|--6--0--0--0--5--0--0--0--|
--10----------------|--------------------------|--------------------------|
--------------------|--------------------------|--------------------------|


  E  E  E  E  H           W                   W                 
-----------------------|-------------------|-------------------|
-----------------------|-------------------|-------------------|
-----------------------|-------------------|-------------------|
--3--0--0--0-----------|-------------------|-------------------|
-----------------------|--3----------------|--0----------------|
-----------------------|--1----------------|--3----------------|


  W                   E  E  E  E  E  E  E  E     E  E  E  E  E  E  E  E   
-------------------|--------------------------|--------------------------|
-------------------|--------------------------|--------------------------|
-------------------|--0-----------------------|--------------------------|
--0----------------|--2--3--0--0--4--0--0--0--|--6--0--0--0--5--0--0--0--|
--2----------------|--------------------------|--------------------------|
-------------------|--------------------------|--------------------------|


  E  E  E  E  H           W                   W                 
-----------------------|-------------------|-------------------|
-----------------------|-------------------|-------------------|
-----------------------|-------------------|-------------------|
--3--0--0--0-----------|-------------------|-------------------|
-----------------------|-------------------|-------------------|
-----------------------|-------------------|-------------------|


  Q    E  E  E  E  Q       E  E  E  E  E  E  Q       Q    E  E  E  E  Q     
------------------------|-------------------------|------------------------|
------------------------|-------------------------|------------------------|
------------------------|-------------------------|------------------------|
--4----------------4----|-----4--4-----4-----4----|--2----------------2----|
--2-------2--2-----2----|-----2--2-----2-----2----|--0-------0--0-----0----|
------------------------|-------------------------|------------------------|


  E  E  E  E  E  E  Q       Q    E  E  E  E  Q        E  E  E  E  Q    E   E   
-------------------------|-------------------------|--------------------------|
-------------------------|-------------------------|--------------------------|
-------------------------|-------------------------|--------------------------|
-----2--2-----2-----2----|-------------------------|--------------2----2S--4--|
-----0--0-----0-----0----|--5----------------5S----|--4--4-----4--0----0S--2--|
-------------------------|--3-------3--3-----3S----|--2--2-----2--------------|


  Q    E  E  E  E  Q       E  E  E  E  E  E  Q       W                 
------------------------|-------------------------|-------------------|
------------------------|-------------------------|-------------------|
------------------------|-------------------------|-------------------|
--4----------------4----|-----4--4-----4-----4----|--5----------------|
--2-------2--2-----2----|-----2--2-----2-----2----|--3----------------|
------------------------|-------------------------|-------------------|


  E  E  E  H        E     W                   E  E  E  H        E   
-----------------------|-------------------|-----------------------|
-----------------------|-------------------|-----------------------|
-----------------------|-------------------|-----------------------|
--------0--0--------L--|--0----------------|--0-----0--0--------L--|
--0-----0--0--------L--|--0----------------|--3-----3--3--------L--|
--0-----3--3--------L--|--2----------------|--1-----1--1--------L--|


  E  E  E  E  E  E  E  E     E  E  E  E  E  E  E  E     E  H        Q.      
--------------------------|--------------------------|---------------------|
--------------------------|--------------------------|-----8--------L------|
--------------------------|--------------------------|--7------------------|
--------------------------|-----------------------7--|---------------------|
--------------------------|--------------------7-----|---------------------|
--0--0--0--0--0--0--0--0--|--0--0--0--0--0--0--------|---------------------|


  W                   W                   W                 
-------------------|-------------------|-------------------|
-------------------|-------------------|-------------------|
-------------------|-------------------|-------------------|
-------------------|-------------------|--0----------------|
--3----------------|--0----------------|--2----------------|
--1----------------|--3----------------|-------------------|


  H        E  E  E  E      W                    W                 
-----------------------|--------------------|--------------------|
-----------------------|--------------------|--------------------|
--0--------------------|--------------------|--------------------|
--2--------5-----3-----|--10----------------|--12----------------|
--------------0-----0--|---8----------------|--10----------------|
-----------------------|--------------------|--------------------|


  H        E   E  Q       H        E    E  Q       W                 
-----------------------|------------------------|-------------------|
-----------------------|------------------------|-------------------|
-----------------------|------------------------|-------------------|
--5---------------5----|--9----------------9----|-------------------|
--3--------5s--7-------|--7--------9s--11-------|--3----------------|
-----------------------|------------------------|--1----------------|


  W                   W                   H        E  E  E  E   
-------------------|-------------------|-----------------------|
-------------------|-------------------|-----------------------|
-------------------|-------------------|--0--------------------|
-------------------|--0----------------|--2--------5-----3-----|
--0----------------|--2----------------|--------------0-----0--|
--3----------------|-------------------|-----------------------|


   W                    W                   E  E  E  E  E  E  E  E   
--------------------|--------------------|--------------------------|
--------------------|--------------------|--------------------------|
--------------------|--------------------|--0-----------------------|
--10----------------|--12----------------|--2--3--0--0--4--0--0--0--|
---8----------------|--10----------------|--------------------------|
--------------------|--------------------|--------------------------|


  E  E  E  E  E  E  E  E     E  E  E  E  S  S S S S  S S S  
--------------------------|--------------------------------|
--------------------------|-------------------3-0------3-0-|
--------------------------|--------------2s-4-----2s-4-----|
--6--0--0--0--5--0--0--0--|--3--0--0--0--------------------|
--------------------------|--------------------------------|
--------------------------|--------------------------------|


  S  S S S S  S S S S  S S S S  S S S    S   S S S S   S S S S  S  S S Q      
--------------------------------------|--------------------------------------|
-------3-0------3-0------5-0------5-0-|--------5-0-------8-0-----------------|
--2s-4-----2s-4-----4s-6-----4s-6-----|--7s-10-----7s-10-----5s-7s-5-4-3~----|
--------------------------------------|--------------------------------------|
--------------------------------------|--------------------------------------|
--------------------------------------|--------------------------------------|


   S  S  S  H            S  S  S  S  S     S  S  H            S  S  S  S  S  S  
---------------------------------------|---------------------------------------|
-----14-15-15brb--------11-------------|--11-16-15brb--------16-15-------15----|
--15-----------------------14-12-14-12-|---------------------------15-16----16-|
---------------------------------------|---------------------------------------|
---------------------------------------|---------------------------------------|
---------------------------------------|---------------------------------------|


   S  S  S  S  E   E    H             W                    W                 
----------------------------------|---------------------|-------------------|
-----14---------------------------|---------------------|-------------------|
--15----15-14-15--17b--18b--------|--20b----------------|-------------------|
----------------------------------|---------------------|-------------------|
----------------------------------|---------------------|--3----------------|
----------------------------------|---------------------|--1----------------|


  W                   W                   H        E  E  E  E   
-------------------|-------------------|-----------------------|
-------------------|-------------------|-----------------------|
-------------------|-------------------|--0--------------------|
-------------------|--0----------------|--2--------5-----3-----|
--0----------------|--2----------------|--------------0-----0--|
--3----------------|-------------------|-----------------------|


   W                    W                   H        E   E  Q     
--------------------|--------------------|-----------------------|
--------------------|--------------------|-----------------------|
--------------------|--------------------|-----------------------|
--10----------------|--12----------------|--5---------------5----|
---8----------------|--10----------------|--3--------5s--7-------|
--------------------|--------------------|-----------------------|


  H        E    E  Q       W                   W                 
------------------------|-------------------|-------------------|
------------------------|-------------------|-------------------|
------------------------|-------------------|-------------------|
--9----------------9----|-------------------|-------------------|
--7--------9s--11-------|--3----------------|--0----------------|
------------------------|--1----------------|--3----------------|


  W                   H        E  E  E  E      W                 
-------------------|-----------------------|--------------------|
-------------------|-----------------------|--------------------|
-------------------|--0--------------------|--------------------|
--0----------------|--2--------5-----3-----|--10----------------|
--2----------------|--------------0-----0--|---8----------------|
-------------------|-----------------------|--------------------|


   W                   E  E  E  E  E  E  E  E     E  E  E  E  E  E  E  E   
--------------------|--------------------------|--------------------------|
--------------------|--------------------------|--------------------------|
--------------------|--0-----------------------|--------------------------|
--12----------------|--2--3--0--0--4--0--0--0--|--6--0--0--0--5--0--0--0--|
--10----------------|--------------------------|--------------------------|
--------------------|--------------------------|--------------------------|


  E  E  E  E  H           W                   W                 
-----------------------|-------------------|-------------------|
-----------------------|-------------------|-------------------|
-----------------------|-------------------|-------------------|
--3--0--0--0-----------|-------------------|-------------------|
-----------------------|--3----------------|--0----------------|
-----------------------|--1----------------|--3----------------|


  W                   E  E  E  E  E  E  E  E     E  E  E  E  E  E  E  E   
-------------------|--------------------------|--------------------------|
-------------------|--------------------------|--------------------------|
-------------------|--0-----------------------|--------------------------|
--0----------------|--2--3--0--0--4--0--0--0--|--6--0--0--0--5--0--0--0--|
--2----------------|--------------------------|--------------------------|
-------------------|--------------------------|--------------------------|


  E  E  E  E  H            H          H            H         H          
-----------------------|------------------------|----------------------|
-----------------------|--12---------10---------|--7---------5---------|
-----------------------|--14b--------12b--------|--9b--------7b--------|
--3--0--0--0-----------|------------------------|----------------------|
-----------------------|------------------------|----------------------|
-----------------------|------------------------|----------------------|


   H          H            H         H             H          H          
------------------------|----------------------|------------------------|
------------------------|----------------------|--12---------10---------|
--14b--------12b--------|--9b--------7b--------|--14b--------12b--------|
------------------------|----------------------|------------------------|
------------------------|----------------------|------------------------|
------------------------|----------------------|------------------------|


  H         H            E  E  E  E  E  E  E  E     E  E  E  E  E  E  E  E   
----------------------|--------------------------|--------------------------|
--7---------5---------|--------------------------|--------------------------|
--9b--------7b--------|--------------------------|--------------------------|
----------------------|-----4--0--4--2--0--------|-----4--0--4--2--0--------|
----------------------|--2-----------------4--0--|--2-----------------4--0--|
----------------------|--------------------------|--------------------------|


  E  E  E  E  E  E  E  E     E  E  E  E  E  E  E  E    
--------------------------|--------------------------||
--------------------------|--------------------------||
--------------------------|--------------------------||
-----4--0--4--2--0--------|-----4--0--4--2--0-----4--||
--2-----------------4--0--|--2-----------------4--2--||
--------------------------|--------------------------||




Duration Legend
---------------
W - whole
H - half
Q - quarter
E - 8th
S - 16th
T - 32nd
X - 64th
. - note dotted
|-n-|  - n-tuplets


Tablature Legend
----------------
L - tied note
x - dead note
g - grace note
(n) - ghost note
> - accentuded note
NH - natural harmonic
AH - artificial harmonic
TH - tapped harmonic
SH - semi harmonic
PH - pitch harmonic
h - hammer on
p - pull off
b - bend
br - bendRelease
pb - preBend
pbr - preBendRelease
brb - bendReleaseBend
\n/ - tremolo bar dip
\n - tremolo bar dive
-/n - tremolo bar Release up
/n\ - tremolo bar inverted dip
/n - tremolo bar return
-\n - tremolo bar Release down
S - shift slide
s - legato slide
/ -  slide into from below or out of upwards
\ -  slide into from above or out of downwards
~ - vibrato
W - wide vibrato
tr - trill
TP - tremolo picking
T - tapping
S - slap
P - pop
  - fade in
^ - brush up
v - brush down
     
Добавлено: 10.08.2013
Другие материалы по этой песне:
  • Аккорды и текст

Страница создана 10.08.2013
http://primanota.ru/bz/friction-chords.htm
Привет, Гость.
Предлагаем пройти революционный курс по гитаре.
Подарок от PrimaNota.Ru, забирай!