PrimaNota.ru - самый крупный в мире бесплатный архив песенных текстов, аккордов, табулатур и нот


Byzantine - The Rat Eaters - таба, видео

Регистрация Запомнить меня
Войти через:  Facebook Google Twitter Vk Yandex Mail.ru

Byzantine - The Rat Eaters - таба, видео

Печатать
Просмотров: 139
As recorded by Byzantine
(From the 2005 Album ... AND THEY SHALL TAKE UP SERPENTS)

Transcribed by Tony Rohrbough
        

Words by Chris Ojeda Music by Byzantine
Arranged by Byzantine


Gtr I (D G C F A D) - 'Untitled'
Gtr II (D G C F A D) - 'Untitled'

   Intro
    Q=185
   3/4                                      4/4
    Gtr I
    PM----------------------------------|
    H.        H.        H.        Q  Q  Q     Q  Q   Q  Q
||----------|---------|---------|----------|---------------|
||o---------|---------|---------|----------|---------------|
||----------|---------|---------|----------|---------------|
||----------|---------|---------|----------|---------------|
||o-2-------|-2-------|-2-------|-2--2--2--|-----1------2--|
||--1-------|-0-------|-1-------|-0--1--0--|-/2-----/3-----|
|
|   Gtr II
|   PM----------------------------------|
|   H.        H.        H.        Q  Q  Q     Q  Q   Q  Q
||----------|---------|---------|----------|---------------|
||o---------|---------|---------|----------|---------------|
||----------|---------|---------|----------|---------------|
||----------|---------|---------|----------|-----4------5--|
||o-2-------|-2-------|-2-------|-2--2--2--|-/5-----/6-----|
||--1-------|-0-------|-1-------|-0--1--0--|---------------|


 3/4
  PM----------------------------------|
  H.        H.        H.        Q  Q  Q    H    Q    +Q   H
|---------|---------|---------|----------|---------|------------||
|---------|---------|---------|----------|---------|-----------o||
|---------|---------|---------|----------|-3-------|------------||
|---------|---------|---------|----------|-1----4--|-(4)--5-----||
|-2-------|-2-------|-2-------|-2--2--2--|-1-------|-----------o||
|-1-------|-0-------|-1-------|-0--1--0--|------2--|-(2)--3-----||
|
| PM----------------------------------|
| H.        H.        H.        Q  Q  Q    H    Q    +Q   H
|---------|---------|---------|----------|---------|------------||
|---------|---------|---------|----------|---------|-----------o||
|---------|---------|---------|----------|-8-------|------------||
|---------|---------|---------|----------|------7--|-(7)--8-----||
|-2-------|-2-------|-2-------|-2--2--2--|-6-------|-----------o||
|-1-------|-0-------|-1-------|-0--1--0--|------5--|-(5)--6-----||


 4/4
              PM            PM                 PM|
  a  E  E +E  E a  E  E +E  E   E  E  E  E  Q  E E
|-----------------------------|--------------------|
|-----------------------------|--------------------|
|-----------------------------|--------------------|
|-5-/8-\5-(5)---5-/8-\5-(5)---|-5-/8-\5-/8-\5------|
|-----------------------------|--------------------|
|-3-/6-\3-(3)-0-3-/6-\3-(3)-0-|-3-/6-\3-/6-\3--0-0-|


              PM            PM
  a  E  E +E  E a  E  E +E  E   a  E  E +Q   H
|-----------------------------|-------------------|
|-----------------------------|-------------------|
|-----------------------------|-------------------|
|-5-/8-\5-(5)---4-/7-\4-(4)---|-3-/6-\3-(3)-------|
|-----------------------------|-------------------|
|-3-/6-\3-(3)-0-2-/5-\2-(2)-0-|-1-/4-\1-(1)-------|


   Verse
    Gtr I
    PM----------------------------------------------------------------|
    E E E E S S S S S S S S   E E E E S S S S S S S S   E E E E E E E E
||--------------------------|-------------------------|-----------------|
||o-------------------------|-------------------------|-----------------|
||--------------------------|-------------------------|-----------------|
||--------------------------|-------------------------|-----------------|
||o-------------------------|-------------------------|-----------------|
||--0-0-0-0-1-1-1-1-1-1-1-1-|-0-0-0-0-1-1-1-1-1-1-1-1-|-0-0-0-0-0-0-0-0-|
|
|   Gtr II
|   PM----------------------------------------------------------------|
|   E E E E S S S S S S S S   E E E E S S S S S S S S   E E E E E E E E
||--------------------------|-------------------------|-----------------|
||o-------------------------|-------------------------|-----------------|
||--------------------------|-------------------------|-----------------|
||--------------------------|-------------------------|-----------------|
||o-------------------------|-------------------------|-----------------|
||--0-0-0-0-1-1-1-1-1-1-1-1-|-0-0-0-0-1-1-1-1-1-1-1-1-|-0-0-0-0-0-0-0-0-|


                    PM----------------------------------------------|
  E E E E E E E E   E E E E S S S S S S S S   E E E E S S S S S S S S
|-----------------|-------------------------|--------------------------|
|-----------------|-------------------------|--------------------------|
|-8-8-8-8-8-8-8-8-|-------------------------|--------------------------|
|-----------------|-------------------------|--------------------------|
|-6-6-6-6-6-6-6-6-|-------------------------|--------------------------|
|-----------------|-0-0-0-0-1-1-1-1-1-1-1-1-|-0-0-0-0-1-1-1-1-1-1-1-1--|
|
|                   PM----------------------------------------------|
| E E E E E E E E   E E E E S S S S S S S S   E E E E S S S S S S S S
|-----------------|-------------------------|--------------------------|
|-----------------|-------------------------|--------------------------|
|-8-8-8-8-8-8-8-8-|-------------------------|--------------------------|
|-----------------|-------------------------|--------------------------|
|-6-6-6-6-6-6-6-6-|-------------------------|--------------------------|
|-----------------|-0-0-0-0-1-1-1-1-1-1-1-1-|-0-0-0-0-1-1-1-1-1-1-1-1--|


                                                   2/4
  PM                             PM             PM
  E E E E E E E E   a   E  E +E  E a   E  E +E  E   a  E  E +Q
|-----------------|-------------------------------|---------------||
|-----------------|-------------------------------|--------------o||
|---4-4-4-4-4-4-4-|-------------------------------|---------------||
|-----------------|-5--/8-\5-(5)---4--/7-\4-(4)---|-3-/6-\3-(3)---||
|---2-2-2-2-2-2-2-|-------------------------------|--------------o||
|-0---------------|-3--/6-\3-(3)-0-2--/5-\2-(2)-0-|-1-/4-\1-(1)---||
|
| PM                             PM             PM
| E E E E E E E E   a   E  E +E  E a   E  E +E  E   a  E  E +Q
|-----------------|-------------------------------|---------------||
|-----------------|-------------------------------|--------------o||
|-----------------|-------------------------------|---------------||
|---9-9-9-9-9-9-9-|-8-/11-\8-(8)---7-/10-\7-(7)---|-6-/9-\6-(6)---||
|-----------------|-------------------------------|--------------o||
|-0-7-7-7-7-7-7-7-|-6--/9-\6-(6)-0-5--/8-\5-(5)-0-|-4-/7-\4-(4)---||


   Pre Chorus
   4/4                                     5/4
    PM------------------------------------------------------------|
    S S E E E E E E E   S S E E E E E E E   S S E S S E E E E E E E
||--------------------|-------------------|-------------------------|
||o-------------------|-------------------|-------------------------|
||--------------------|-------------------|-------------------------|
||--------------------|-------------------|-------------------------|
||o-------0---1---0---|-------0---1---0---|-------------0---1---0---|
||--3-3-3---3---3---3-|-3-3-3---3---3---3-|-3-3-3-2-2-2---2---2---2-|


  1.                    2.
 4/4
  PM--------------|
                        |-3-| |-3-| |-3-| |-3-|
  S S E E E E E E E     E E E E E E E E E E E E
|--------------------||-------------------------|
|-------------------o||-------------------------|
|--------------------||-------------------------|
|--------------------||-------------------------|
|-------0---1---0---o||-1h2p1-------2h3p2-------|
|-2-2-2---2---2---2--||-------3p2h3-------4p3h4-|


   Verse
    Gtr I
    PM----------------------------------------------------------------|
    E E E E S S S S S S S S   E E E E S S S S S S S S   E E E E E E E E
||--------------------------|-------------------------|-----------------|
||o-------------------------|-------------------------|-----------------|
||--------------------------|-------------------------|-----------------|
||--------------------------|-------------------------|-----------------|
||o-------------------------|-------------------------|-----------------|
||--0-0-0-0-1-1-1-1-1-1-1-1-|-0-0-0-0-1-1-1-1-1-1-1-1-|-0-0-0-0-0-0-0-0-|
|
|   Gtr II
|   PM----------------------------------------------------------------|
|   E E E E S S S S S S S S   E E E E S S S S S S S S   E E E E E E E E
||--------------------------|-------------------------|-----------------|
||o-------------------------|-------------------------|-----------------|
||--------------------------|-------------------------|-----------------|
||--------------------------|-------------------------|-----------------|
||o-------------------------|-------------------------|-----------------|
||--0-0-0-0-1-1-1-1-1-1-1-1-|-0-0-0-0-1-1-1-1-1-1-1-1-|-0-0-0-0-0-0-0-0-|


                    PM----------------------------------------------|
  E E E E E E E E   E E E E S S S S S S S S   E E E E S S S S S S S S
|-----------------|-------------------------|--------------------------|
|-----------------|-------------------------|--------------------------|
|-8-8-8-8-8-8-8-8-|-------------------------|--------------------------|
|-----------------|-------------------------|--------------------------|
|-6-6-6-6-6-6-6-6-|-------------------------|--------------------------|
|-----------------|-0-0-0-0-1-1-1-1-1-1-1-1-|-0-0-0-0-1-1-1-1-1-1-1-1--|
|
|                   PM----------------------------------------------|
| E E E E E E E E   E E E E S S S S S S S S   E E E E S S S S S S S S
|-----------------|-------------------------|--------------------------|
|-----------------|-------------------------|--------------------------|
|-8-8-8-8-8-8-8-8-|-------------------------|--------------------------|
|-----------------|-------------------------|--------------------------|
|-6-6-6-6-6-6-6-6-|-------------------------|--------------------------|
|-----------------|-0-0-0-0-1-1-1-1-1-1-1-1-|-0-0-0-0-1-1-1-1-1-1-1-1--|


                                                   2/4
  PM                             PM             PM
  E E E E E E E E   a   E  E +E  E a   E  E +E  E   a  E  E +Q
|-----------------|-------------------------------|---------------||
|-----------------|-------------------------------|--------------o||
|---4-4-4-4-4-4-4-|-------------------------------|---------------||
|-----------------|-5--/8-\5-(5)---4--/7-\4-(4)---|-3-/6-\3-(3)---||
|---2-2-2-2-2-2-2-|-------------------------------|--------------o||
|-0---------------|-3--/6-\3-(3)-0-2--/5-\2-(2)-0-|-1-/4-\1-(1)---||
|
| PM                             PM             PM
| E E E E E E E E   a   E  E +E  E a   E  E +E  E   a  E  E +Q
|-----------------|-------------------------------|---------------||
|-----------------|-------------------------------|--------------o||
|-----------------|-------------------------------|---------------||
|---9-9-9-9-9-9-9-|-8-/11-\8-(8)---7-/10-\7-(7)---|-6-/9-\6-(6)---||
|-----------------|-------------------------------|--------------o||
|-0-7-7-7-7-7-7-7-|-6--/9-\6-(6)-0-5--/8-\5-(5)-0-|-4-/7-\4-(4)---||


   Intro
   3/4                                      4/4
    PM----------------------------------|
    H.        H.        H.        Q  Q  Q     Q  Q   Q  Q
||----------|---------|---------|----------|---------------|
||o---------|---------|---------|----------|---------------|
||----------|---------|---------|----------|---------------|
||----------|---------|---------|----------|---------------|
||o-2-------|-2-------|-2-------|-2--2--2--|-----1------2--|
||--1-------|-0-------|-1-------|-0--1--0--|-/2-----/3-----|
|
|   PM----------------------------------|
|   H.        H.        H.        Q  Q  Q     Q  Q   Q  Q
||----------|---------|---------|----------|---------------|
||o---------|---------|---------|----------|---------------|
||----------|---------|---------|----------|---------------|
||----------|---------|---------|----------|-----4------5--|
||o-2-------|-2-------|-2-------|-2--2--2--|-/5-----/6-----|
||--1-------|-0-------|-1-------|-0--1--0--|---------------|


 3/4
  PM----------------------------------|
  H.        H.        H.        Q  Q  Q    H    Q    +Q   H
|---------|---------|---------|----------|---------|------------||
|---------|---------|---------|----------|---------|-----------o||
|---------|---------|---------|----------|-3-------|------------||
|---------|---------|---------|----------|-1----4--|-(4)--5-----||
|-2-------|-2-------|-2-------|-2--2--2--|-1-------|-----------o||
|-1-------|-0-------|-1-------|-0--1--0--|------2--|-(2)--3-----||
|
| PM----------------------------------|
| H.        H.        H.        Q  Q  Q    H    Q    +Q   H
|---------|---------|---------|----------|---------|------------||
|---------|---------|---------|----------|---------|-----------o||
|---------|---------|---------|----------|-8-------|------------||
|---------|---------|---------|----------|------7--|-(7)--8-----||
|-2-------|-2-------|-2-------|-2--2--2--|-6-------|-----------o||
|-1-------|-0-------|-1-------|-0--1--0--|------5--|-(5)--6-----||


   Chorus
                                 Emadd9/Bb
   4/4
                           PM|
    H    Q.   E   +H.      E E   E E +E  E +E  E +E  E   +W
||-------0------|--------------|-----------------------|--------|
||o------0----3-|-(3)----------|---------------------0-|-(0)----|
||------------3-|-(3)----------|---------------0-(0)---|--------|
||--2-----------|--------------|---------4-(4)---------|--------|
||o-2-----------|--------------|---7-(7)---------------|--------|
||--0-----------|----------0-0-|-6---------------------|--------|
|
|                          PM|
|   H    Q.   E   +H.      E E   E E +E  E +E  E +E  E   +W
||-------0------|--------------|-----------------------|--------|
||o------0----3-|-(3)----------|---------------------0-|-(0)----|
||------------3-|-(3)----------|---------------0-(0)---|--------|
||--2-----------|--------------|---------4-(4)---------|--------|
||o-2-----------|--------------|---7-(7)---------------|--------|
||--0-----------|----------0-0-|-6---------------------|--------|


  Eb/G        D/F#          Dmadd9/F
                      PM|
   W          H.      E E   E E +E  E +E   E  +E   E    +W
|-----------|-------------|------------------------0-|--(0)-----||
|-----------|-------------|---------------10-(10)-10-|-(10)----o||
|--8--------|-7-----------|---------9-(9)------------|----------||
|--8--------|-7-----------|---7-(7)------------------|----------||
|-10--------|-9-----------|-8------------------------|---------o||
|-----------|---------0-0-|--------------------------|----------||
|
|                     PM|
|  W          H.      E E   E E +E  E +E   E  +E   E    +W
|-----------|-------------|------------------------0-|--(0)-----||
|-----------|-------------|----------------3--(3)--3-|--(3)----o||
|-----------|-------------|---------2-(2)------------|----------||
|--1--------|-0-----------|---0-(0)------------------|----------||
|--1--------|-0-----------|--------------------------|---------o||
|--3--------|-2-------0-0-|-1------------------------|----------||


 Ninja Dance Party
                             5/4
  PM--------------------------------------------------------------
  S S E  E  S S E  E  S S E    E   S S E  E  S S E  S S E   E  E
|---------------------------|------------------------------------|
|---------------------------|------------------------------------|
|---------------------------|------------------------------------|
|---------------------------|------------------------------------|
|---------------------------|------------------------------------|
|-0-0-0--0--0-0-0--0--0-0-0-|--0---0-0-0--0--0-0-0--0-0-0---0--0-|
|
| W                           +W                           +Q
|---------------------------|------------------------------------|
|---------------------------|------------------------------------|
|---------------------------|------------------------------------|
|-2-------------------------|-(2)--------------------------(2)---|
|-2-------------------------|-(2)--------------------------(2)---|
|-0-------------------------|-(0)--------------------------(0)---|


 4/4                           5/4
 --------------------------------------------------------------|
   S  S E  E  S S E  E  S S E    E   S S E  E  S S E  S S E  E E
|-----------------------------|-------------------------------------|
|-----------------------------|-------------------------------------|
|-----------------------------|-------------------------------------|
|-----------------------------|-------------------------------------|
|-----------------------------|-------------------------------------|
|--0--0-0--0--0-0-0--0--0-0-0-|--0---0-0-0--0--0-0-0--0-0-0--0-0----|
|
|                                                            PM|
| +W                            +W                           E E
|-----------------------------|-------------------------------------|
|-----------------------------|-------------------------------------|
|-----------------------------|-------------------------------------|
|-(2)-------------------------|-(2)---------------------------------|
|-(2)-------------------------|-(2)---------------------------------|
|-(0)-------------------------|-(0)--------------------------0-0----|


 4/4                     5/4
  PM-------------------------------------------------
  S S E E S S E E S S E   E S S E E S S E S S E E E
|-----------------------|---------------------------|
|-----------------------|---------------------------|
|-----------------------|---------------------------|
|-----------------------|---------------------------|
|-----------------------|---------------------------|
|-0-0-0-0-0-0-0-0-0-0-0-|-0-0-0-0-0-0-0-0-0-0-0-0-0-|
|
|                                               PM|
| E   Q   E   Q   E   E   E E   Q   H           E E
|-----------------------|---------------------------|
|-----------------------|---------------------------|
|-----------------------|---------------------------|
|-----------------------|---------------------------|
|-2-------2-------2-----|---2-----------------------|
|-0-------0-------0-----|---0-------------------0-0-|


 4/4                     5/4
 -------------------------------------------------|
  S S E E S S E E S S E   E S S E E S S E S S E E E
|-----------------------|----------------------------|
|-----------------------|----------------------------|
|-----------------------|----------------------------|
|-----------------------|----------------------------|
|-----------------------|----------------------------|
|-0-0-0-0-0-0-0-0-0-0-0-|-0-0-0-0-0-0-0-0-0-0-0-0-0--|
|
|                                               PM|
| E   Q   E   Q   E   E   E E   Q   H           E E
|-----------------------|----------------------------|
|-----------------------|----------------------------|
|-----------------------|----------------------------|
|-----------------------|----------------------------|
|-2-------2-------2-----|---2------------------------|
|-0-------0-------0-----|---0-------------------0-0--|


   4/4                         5/4
    PM----------------------------------------------------------
    S S E  E  S S E  E  S S E   E  S S E  E  S S E  S S E  E E
||----------------------------|--------------------------------|
||o---------------------------|--------------------------------|
||----------------------------|--------------------------------|
||----------------------------|--------------------------------|
||o---------------------------|--------------------------------|
||--0-0-0--0--0-0-0--0--0-0-0-|-0--0-0-0--0--0-0-0--0-0-0--0-0-|
|
|   PM----------------------------------------------------------
|   S S E  E  S S E  E  S S E   E  S S E  E  S S E  S S E  E E
||----------------------------|--------------------------------|
||o---------------------------|--------------------------------|
||----------------------------|--------------------------------|
||----------------------------|--------------------------------|
||o---------------------------|--------------------------------|
||--0-0-0--0--0-0-0--0--0-0-0-|-0--0-0-0--0--0-0-0--0-0-0--0-0-|


 4/4                         5/4
 ----------------------------------------------------------|
  S S E  E  S S E  E  S S E   E  S S E  E  S S E  S S E  E E  4x
|---------------------------|---------------------------------||
|---------------------------|--------------------------------o||
|---------------------------|---------------------------------||
|---------------------------|---------------------------------||
|---------------------------|--------------------------------o||
|-0-0-0--0--0-0-0--0--0-0-0-|-0--0-0-0--0--0-0-0--0-0-0--0-0--||
|
|----------------------------------------------------------|
| S S E  E  S S E  E  S S E   E  S S E  E  S S E  S S E  E E  4x
|---------------------------|---------------------------------||
|---------------------------|--------------------------------o||
|---------------------------|---------------------------------||
|---------------------------|---------------------------------||
|---------------------------|--------------------------------o||
|-0-0-0--0--0-0-0--0--0-0-0-|-0--0-0-0--0--0-0-0--0-0-0--0-0--||


 4/4                         5/4
    H           H             +W                      Q
|---------------------------|-----------------------------|
|---------------------------|-----------------------------|
|---------------------------|-----------------------------|
|---------------8b9---------|-(8)-------------------------|
|-/10-----------------------|-----------------------------|
|---------------------------|-------------------------0---|
|
|   PM-----------------------------------------------------
|   S S E E S S E   E S S E    E  S S E E S S E S S E E E
|---------------------------|-----------------------------|
|---------------------------|-----------------------------|
|---------------------------|-----------------------------|
|---------------------------|-----------------------------|
|---------------------------|-----------------------------|
|---0-0-0-0-0-0-0---0-0-0-0-|--0--0-0-0-0-0-0-0-0-0-0-0-0-|


 4/4                           5/4
  +Q       H.                    +W                      Q
|----------0------------------|--(0)--------------------------|
|---------11------------------|-(11)--------------------------|
|---------13b14---------------|-(13)--------------------------|
|-----------------------------|-------------------------------|
|-----------------------------|-------------------------------|
|-(0)-------------------------|-------------------------------|
|
|----------------------------------------------------------|
|  S  S E  E    S S E E S S E     E  S S E E S S E S S E E E
|-----------------------------|-------------------------------|
|-----------------------------|-------------------------------|
|-----------------------------|-------------------------------|
|-----------------------------|-------------------------------|
|-----------------------------|-------------------------------|
|--0--0-0--0----0-0-0-0-0-0-0-|---0--0-0-0-0-0-0-0-0-0-0-0-0--|


 4/4                         5/4
    H           H             +W                      Q
|---------------------------|-----------------------------|
|---------------------------|-----------------------------|
|---------------------------|-----------------------------|
|---------------8b9---------|-(8)-------------------------|
|-/10-----------------------|-----------------------------|
|---------------------------|-------------------------0---|
|
|   PM-----------------------------------------------------
|   S S E E S S E   E S S E    E  S S E E S S E S S E E E
|---------------------------|-----------------------------|
|---------------------------|-----------------------------|
|---------------------------|-----------------------------|
|---------------------------|-----------------------------|
|---------------------------|-----------------------------|
|---0-0-0-0-0-0-0---0-0-0-0-|--0--0-0-0-0-0-0-0-0-0-0-0-0-|


 4/4                           5/4
  +Q       H.                    +W                       +Q
|----------0------------------|--(0)----------------------(0)----|
|----------8------------------|--(8)----------------------(8)----|
|---------10b11---------------|-(10)---------------------(10)----|
|-----------------------------|----------------------------------|
|-----------------------------|----------------------------------|
|-(0)-------------------------|----------------------------------|
|
|-------------------------------------------------------------|
|  S  S E  E    S S E E S S E     E  S S E E S S E S S E   E  E
|-----------------------------|----------------------------------|
|-----------------------------|----------------------------------|
|-----------------------------|----------------------------------|
|-----------------------------|----------------------------------|
|-----------------------------|----------------------------------|
|--0--0-0--0----0-0-0-0-0-0-0-|---0--0-0-0-0-0-0-0-0-0-0---0--0--|


 Solo - Tony
 4/4
  W                   +H.            Q
|-------------------|-------------------|
|-------------------|-------------------|
|-7pb9r=============|=(7)----------/11--|
|-------------------|-------------------|
|-------------------|-------------------|
|-------------------|-------------------|
|
| PM-------------------------|   PM
| E    E E E Q  E E    Q   E E E E   Q
|-------------------|-------------------|
|-------------------|-------------------|
|-------------------|-------------------|
|-------------------|-------------------|
|-------------------|-------------------|
|-0--------0----0---|------0-0---0------|


                         ~~~      T
  Q.     Q     +E       +Q        W
|-------------------------------|---------------------|
|-------------------------------|---------------------|
|-7------6-----(6)pb7r==(6)-----|-6(18)---------------|
|-------------------------------|---------------------|
|-------------------------------|---------------------|
|-------------------------------|---------------------|
|
| PM------------------------------------------------|
| |---3----| |-------3--------|   |----3----| |--3--|
| Q  Q E   E Q        Q     E E   Q     Q E E Q Q E E
|-------------------------------|---------------------|
|-------------------------------|---------------------|
|-------------------------------|---------------------|
|-------------------------------|---------------------|
|-------------------------------|---------------------|
|-0--0-0---0-0--------0-----0-0-|-0-----0-0-0-0-0-0-0-|


   E  E  E  E  +Q       Q      +W
|---------------------------|------------------|
|----------------------15---|-(15)-------------|
|----16----15-(15)b16-------|------------------|
|-14----14------------------|------------------|
|---------------------------|------------------|
|---------------------------|------------------|
|
|  PM---------------------------------|   PM
|  E  E  E  E   Q       E E     Q   E E E E Q
|---------------------------|------------------|
|---------------------------|------------------|
|---------------------------|------------------|
|---------------------------|------------------|
|---------------------------|------------------|
|--3--------3-----------3---|-------3-3---3----|


   E  E     E     E    +Q        Q        +H            +H
|-------------------------------14-----|-(14)b15-------(14)-------|
|--------------------------------------|--------------------------|
|----16----------15---(15)b16----------|--------------------------|
|-14------(14)-------------------------|--------------------------|
|--------------------------------------|--------------------------|
|--------------------------------------|--------------------------|
|
|  PM-----------------------------------------------------------|
|  |-------3--------|   |-----3------|     |----3----|   |--3---|
|  Q    Q      E    E   Q     Q    E E     Q     Q E E   Q  Q E E
|--------------------------------------|--------------------------|
|--------------------------------------|--------------------------|
|--------------------------------------|--------------------------|
|--------------------------------------|--------------------------|
|--4----4------4----4---4-----4----4-4-|---4-----4-4-4---4--4-4-4-|
|--------------------------------------|--------------------------|


               |---3----|              |--3---|              |--3---|              |-3--|
   S  S  S  S  E  E    +E   S  S  S S  E E   +E    S  S S S  E E   +E   S  S  S S  E E +E
|-14h15p14p12------------------------------------|-----------------------------------------|
|-------------15p12---(12)-----------------------|-----------------------------------------|
|--------------------------11h12p11p9------------|---------------------11h12p11p9----------|
|-------------------------------------12p9---(9)-|--------------------------------12p9-(9)-|
|------------------------------------------------|-9h10p9p7--------------------------------|
|------------------------------------------------|----------10-7---(7)---------------------|
|
|  PM------------------------------------------------------------|            PM
|  E     E     E    E       Q          E   E       Q         E   E      E     E    Q
|------------------------------------------------|-----------------------------------------|
|------------------------------------------------|-----------------------------------------|
|------------------------------------------------|-----------------------------------------|
|------------------------------------------------|-----------------------------------------|
|------------------------------------------------|-----------------------------------------|
|--0----------------0------------------0---------|-----------0---0------------0------------|


   S  S  S    S  E    E     Q.      E      W
|-14h15p14p==12-------------------------|---------------------|
|---------------15---12---\10------12---|-\7------------------|
|---------------------------------------|---------------------|
|---------------------------------------|---------------------|
|---------------------------------------|---------------------|
|---------------------------------------|---------------------|
|
|  PM----------------------------------------------------|
|  |---------3----------|   |----3----|    |--3--| |--3--|
|  Q       Q       E    E   Q  Q E    E    Q Q E E Q Q E E
|---------------------------------------|---------------------|
|---------------------------------------|---------------------|
|---------------------------------------|---------------------|
|---------------------------------------|---------------------|
|---------------------------------------|---------------------|
|--0-------0-------0----0---0--0-0----0-|--0-0-0-0-0-0-0-0----|


   E  E  E  E  E  E  E  E    E  E  E  E  E  E  Q
|-------------------------|-----------------------|
|-------17----15-------17-|----15-------17----15--|
|-------------------------|-----------------------|
|-14-14----14----14-14----|-14----14-14----14-----|
|-------------------------|-----------------------|
|-------------------------|-----------------------|
|
|  PM--------------------------------|      PM
|  E  E  E  E  Q     E  E    Q     E  E  E  E  Q
|-------------------------|-----------------------|
|-------------------------|-----------------------|
|-------------------------|-----------------------|
|-------------------------|-----------------------|
|--1--------1--------1----|--------1--1-----1-----|
|-------------------------|-----------------------|


                                                           ~~
   E  E    E    E    E  E    E    E      E  E    E    E    H
|---------18--------17-----------18---|----17----------------------|
|-------------------------------------|-------------------19-------|
|-15-15--------15------15---15--------|-15------15---15------------|
|-------------------------------------|----------------------------|
|-------------------------------------|----------------------------|
|-------------------------------------|----------------------------|
|
|  PM------------------------------------------------------------|
|  |------3-------|  |------3-------|    |------3-------|  |--3--|
|  Q    Q    E    E  Q    Q    E    E    Q    Q    E    E  Q Q E E
|-------------------------------------|----------------------------|
|-------------------------------------|----------------------------|
|-------------------------------------|----------------------------|
|-------------------------------------|----------------------------|
|-------------------------------------|----------------------------|
|--2----2----2----2--2----2----2----2-|--2----2----2----2--3-3-3-3-|


   E  E  E  E  E  E  E  E    +Q    E  E  E  E  +Q
|----------------17-12-14-|-(14)--14h15p14----------|
|-------------15----------|----------------15-(15)--|
|----------12-------------|-------------------------|
|-------16----------------|-------------------------|
|----14-------------------|-------------------------|
|-12----------------------|-------------------------|
|
|  PM--------------------------------|      PM
|  E  E  E  E  Q     E  E     Q    E  E  E  E   Q
|-------------------------|-------------------------|
|-------------------------|-------------------------|
|-------------------------|-------------------------|
|-------------------------|-------------------------|
|-------------------------|-------------------------|
|--0--------0--------0----|--------0--0-----0-------|


   E  E    E    E    +Q     E    E      E  E    E     E     H
|-14h15p==14---------------14h==15p==|=14------12---/14---\12--------|
|--------------12---(12)-------------|----15-------------------------|
|------------------------------------|-------------------------------|
|------------------------------------|-------------------------------|
|------------------------------------|-------------------------------|
|------------------------------------|-------------------------------|
|
|  PM-------------------------------------------------------------|
|  |------3-------|   |-----3------|    |-------3-------|   |--3--|
|  Q    Q    E    E   Q  Q    E    E    Q    Q    E     E   Q Q E E
|------------------------------------|-------------------------------|
|------------------------------------|-------------------------------|
|------------------------------------|-------------------------------|
|------------------------------------|-------------------------------|
|------------------------------------|-------------------------------|
|--0----0----0----0---0--0----0----0-|--0----0----0-----0---0-0-0-0--|


   E  E  E  E  E  E  E  E    +Q     E   E  +H
|----------------20-15-18-|-(18)--/22-\17-(17)------|
|-------------18----------|-------------------------|
|----------15-------------|-------------------------|
|-------19----------------|-------------------------|
|----17-------------------|-------------------------|
|-15----------------------|-------------------------|
|
|  PM---------------------------------|        PM
|  E  E  E  E  Q     E  E     Q     E   E   E  E Q
|-------------------------|-------------------------|
|-------------------------|-------------------------|
|-------------------------|-------------------------|
|-------------------------|-------------------------|
|-------------------------|-------------------------|
|--3--------3--------3----|---------3---3------3----|


            |--3--|           |--3--|             |--3--|           |--3--|
   Q        E  E  E  Q        E  E  E    Q        E  E  E  Q        E  E  E
|-17b19rp==15-------17b19rp==15-------|-17b19rp==15-------17b19rp==15-------|
|-------------17p15-------------17p15-|-------------17p15-------------17p15-|
|-------------------------------------|-------------------------------------|
|-------------------------------------|-------------------------------------|
|-------------------------------------|-------------------------------------|
|-------------------------------------|-------------------------------------|
|
|  PM--------------------------------------------------------------------|
|  |------3-------|  |------3-------|    |------3-------|  |------3-------|
|  Q     Q     E  E  Q     Q     E  E    Q     Q     E  E  Q     Q     E  E
|-------------------------------------|-------------------------------------|
|-------------------------------------|-------------------------------------|
|-------------------------------------|-------------------------------------|
|-------------------------------------|-------------------------------------|
|--4-----4-----4--4--4-----4-----4--4-|--4-----4-----4--4--4-----4-----4--4-|
|-------------------------------------|-------------------------------------|


   |------5------|              |-----5------|
   S  S  S    S  S  S  S  S  S  S  S   S  S  S  S  S  S  S
|------------14h15h17p15p14--------------------12h14h15p14p|
|-14h15h17------------------17p15p14-\12h14h15-------------|
|----------------------------------------------------------|
|----------------------------------------------------------|
|----------------------------------------------------------|
|----------------------------------------------------------|
|
|  PM-------------------------------------------------------
|  E       E        E     E     Q               E     E
|----------------------------------------------------------|
|----------------------------------------------------------|
|----------------------------------------------------------|
|----------------------------------------------------------|
|----------------------------------------------------------|
|--0----------------------0---------------------0----------|


   S  S  S  S  E E H
|-12----------------------|
|----15p14p12-------------|
|-------------15----------|
|-------------------------|
|-------------------------|
|-------------------------|
|
|----------------|   PM
|  Q           E E E E Q
|-------------------------|
|-------------------------|
|-------------------------|
|-------------------------|
|-------------------------|
|--------------0-0---0----|


   |-------6--------|    |------5------|     |-------5-------|  |------6-------|
   S  S  S    S  S  S    S    S  S  S  S     S  S  S    S    S  S  S  S  S  S  S
|--------------------------------------------------------------------------------|
|--------------------------------------------------------------------------------|
|------------12h14h16p==14p==12------------------------11h==12h14p12p11----------|
|-12h14h16----------------------16p14p12---\11h12h14--------------------14p12p11-|
|--------------------------------------------------------------------------------|
|--------------------------------------------------------------------------------|
|
|  PM-----------------------------------------------------------------------------
|  |-----------3-----------|     |-----------3------------|
|  Q       Q          E    E     Q       Q           E    E
|--------------------------------------------------------------------------------|
|--------------------------------------------------------------------------------|
|--------------------------------------------------------------------------------|
|--------------------------------------------------------------------------------|
|--------------------------------------------------------------------------------|
|--0-------0----------0----0-----0-------0-----------0----0----------------------|


                    ~~~
   S  S  S  S  E E +H
|------------------------------------|
|------------------------------------|
|------------------------------------|
|------------------------------------|
|-14p12p10-\9h10p9-(9)---------------|
|------------------------------------|
|
|--------------------------------|
|  |----------3----------| |--3--|
|  Q        Q          E E Q Q E E
|------------------------------------|
|------------------------------------|
|------------------------------------|
|------------------------------------|
|------------------------------------|
|--0--------0----------0-0-0-0-0-0---|


   E  E  E  E  E  E  E  E    E  E  E  E  +H
|----19----18----18----17-|----17----15-(15)------|
|-------------------------|-----------------------|
|-16----16----15----15----|-14----14--------------|
|-------------------------|-----------------------|
|-------------------------|-----------------------|
|-------------------------|-----------------------|
|
|  PM--------------------------------|       PM
|  E  E  E  E  Q     E  E    Q     E  E   E  E Q
|-------------------------|-----------------------|
|-------------------------|-----------------------|
|-------------------------|-----------------------|
|-------------------------|-----------------------|
|--1--------1--------1----|--------1--1------1----|
|-------------------------|-----------------------|


   E  E  E  E  E  E  E  E   E  E E  E  E   E   Q
|----15----14----14----13-|---12---10-10-/12\-10---|
|-------------------------|------------------------|
|-12----12----11----11----|-9----9-----------------|
|-------------------------|------------------------|
|-------------------------|------------------------|
|-------------------------|------------------------|
|
|  PM--------------------------------------------|
|  |---3----|  |---3----|   |---3---|  |----3----|
|  Q  Q  E  E  Q  Q  E  E   Q  Q E  E  Q   Q   E E
|-------------------------|------------------------|
|-------------------------|------------------------|
|-------------------------|------------------------|
|-------------------------|------------------------|
|-------------------------|------------------------|
|--2--2--2--2--2--2--2--2-|-2--2-2--2--3---3---3-3-|


   Pre Chorus
                                           5/4
    PM------------------------------------------------------------|
    S S E E E E E E E   S S E E E E E E E   S S E S S E E E E E E E
||--------------------|-------------------|--------------------------|
||o-------------------|-------------------|--------------------------|
||--------------------|-------------------|--------------------------|
||--------------------|-------------------|--------------------------|
||o-------0---1---0---|-------0---1---0---|-------------0---1---0----|
||--3-3-3---3---3---3-|-3-3-3---3---3---3-|-3-3-3-2-2-2---2---2---2--|


  1.                   2.
 4/4
  PM--------------|           PM--|       PM--|
                        |-3-| |-3-| |-3-| |-3-|
  S S E E E E E E E     E E E E E E E E E E E E
|--------------------||-------------------------|
|-------------------o||-------------------------|
|--------------------||-------------------------|
|--------------------||-------------------------|
|-------0---1---0---o||-1h2p1-------2h3p2-------|
|-2-2-2---2---2---2--||-------3-2-3-------4-3-4-|


   Chorus
                                 Emadd9/Bb
    Gtr I
                           PM|
    H    Q.   E   +H.      E E   E E +E  E +E  E +E  E   +W
||-------0------|--------------|-----------------------|--------|
||o------0----3-|-(3)----------|---------------------0-|-(0)----|
||------------3-|-(3)----------|---------------0-(0)---|--------|
||--2-----------|--------------|---------4-(4)---------|--------|
||o-2-----------|--------------|---7-(7)---------------|--------|
||--0-----------|----------0-0-|-6---------------------|--------|
|
|   Gtr II
|                          PM|
|   H    Q.   E   +H.      E E   E E +E  E +E  E +E  E   +W
||-------0------|--------------|-----------------------|--------|
||o------0----3-|-(3)----------|---------------------0-|-(0)----|
||------------3-|-(3)----------|---------------0-(0)---|--------|
||--2-----------|--------------|---------4-(4)---------|--------|
||o-2-----------|--------------|---7-(7)---------------|--------|
||--0-----------|----------0-0-|-6---------------------|--------|


  Eb/Gb       D/F#          Dmadd9/F
                      PM|
   W          H.      E E   E E +E  E +E   E  +E   E    +W
|-----------|-------------|------------------------0-|--(0)-----||
|-----------|-------------|---------------10-(10)-10-|-(10)----o||
|--8--------|-7-----------|---------9-(9)------------|----------||
|--8--------|-7-----------|---7-(7)------------------|----------||
|-10--------|-9-----------|-8------------------------|---------o||
|-----------|---------0-0-|--------------------------|----------||
|
|                     PM|
|  W          H.      E E   E E +E  E +E   E  +E   E    +W
|-----------|-------------|------------------------0-|--(0)-----||
|-----------|-------------|----------------3--(3)--3-|--(3)----o||
|-----------|-------------|---------2-(2)------------|----------||
|--1--------|-0-----------|---0-(0)------------------|----------||
|--1--------|-0-----------|--------------------------|---------o||
|--3--------|-2-------0-0-|-1------------------------|----------||


   Outro
   3/4                                      4/4
    PM----------------------------------|
    H.        H.        H.        Q  Q  Q     Q  Q   Q  Q
||----------|---------|---------|----------|---------------|
||o---------|---------|---------|----------|---------------|
||----------|---------|---------|----------|---------------|
||----------|---------|---------|----------|---------------|
||o-2-------|-2-------|-2-------|-2--2--2--|-----1------2--|
||--1-------|-0-------|-1-------|-0--1--0--|-/2-----/3-----|
|
|   PM----------------------------------|
|   H.        H.        H.        Q  Q  Q     Q  Q   Q  Q
||----------|---------|---------|----------|---------------|
||o---------|---------|---------|----------|---------------|
||----------|---------|---------|----------|---------------|
||----------|---------|---------|----------|-----4------5--|
||o-2-------|-2-------|-2-------|-2--2--2--|-/5-----/6-----|
||--1-------|-0-------|-1-------|-0--1--0--|---------------|


 3/4
  PM----------------------------------|
  H.        H.        H.        Q  Q  Q    H    Q    +Q   H
|---------|---------|---------|----------|---------|------------||
|---------|---------|---------|----------|---------|-----------o||
|---------|---------|---------|----------|-3-------|------------||
|---------|---------|---------|----------|-1----4--|-(4)--5-----||
|-2-------|-2-------|-2-------|-2--2--2--|-1-------|-----------o||
|-1-------|-0-------|-1-------|-0--1--0--|------2--|-(2)--3-----||
|
| PM----------------------------------|
| H.        H.        H.        Q  Q  Q    H    Q    +Q   H
|---------|---------|---------|----------|---------|------------||
|---------|---------|---------|----------|---------|-----------o||
|---------|---------|---------|----------|-8-------|------------||
|---------|---------|---------|----------|------7--|-(7)--8-----||
|-2-------|-2-------|-2-------|-2--2--2--|-6-------|-----------o||
|-1-------|-0-------|-1-------|-0--1--0--|------5--|-(5)--6-----||



Duration Legend
---------------
W - whole; H - half; Q - quarter; E - 8th; S - 16th; T - 32nd; X - 64th; a - acciaccatura
+ - note tied to previous; . - note dotted; .. - note double dotted
Uncapitalized letters represent notes that are staccato (1/2 duration)
Irregular groupings are notated above the duration line
Duration letters will always appear directly above the note/fret number it represents the
duration for.  Duration letters with no fret number below them represent rests.  Multi-
bar rests are notated in the form Wxn, where n is the number of bars to rest for.  Low
melody durations appear below the staff

Tablature Legend
----------------
 h   - hammer-on
 p   - pull-off
 b   - bend
 pb  - pre-bend
 r   - bend release (if no number after the r, then release immediately)
 /\  - slide into or out of (from/to "nowhere")
 s   - legato slide
 S   - shift slide
 - natural harmonic
[n]  - artificial harmonic
n(n) - tapped harmonic
 ~   - vibrato
 tr  - trill
 T   - tap
 TP  - trem. picking
 PM  - palm muting
\n/  - tremolo bar dip; n = amount to dip
 \n  - tremolo bar down
 n/  - tremolo bar up
/n\  - tremolo bar inverted dip
 =   - hold bend; also acts as connecting device for hammers/pulls
 <> - volume swell (louder/softer)
 x   - on rhythm slash represents muted slash
 o   - on rhythm slash represents single note slash

Misc Legend
-----------
 |  - bar
||  - double bar
||o - repeat start
o|| - repeat end
*|  - double bar (ending)
 :  - bar (freetime)
 $  - Segno
 &  - Coda
Tempo markers -  = BPM(8/16=s8/s16), where s8 = swing 8ths, s16 = swing 16ths

Добавлено: 28.03.2012
Вам также может быть интересно:
Другие материалы по этой песне:

Страница создана 28.03.2012
http://primanota.ru/byzantine/the-rat-eaters-chords.htm
Привет, Гость.
Предлагаем пройти революционный курс по гитаре.
Подарок от PrimaNota.Ru, забирай!