PrimaNota.ru - самый крупный в мире бесплатный архив песенных текстов, аккордов, табулатур и нот


Byzantine - Temporary Temples - таба, видео

Регистрация Запомнить меня
Войти через:  Facebook Google Twitter Vk Yandex Mail.ru

Byzantine - Temporary Temples - таба, видео

Печатать
Просмотров: 210
Уроки эстрадного вокала в Санкт-Петербурге
As recorded by Byzantine
(From the 2005 Album ... AND THEY SHALL TAKE UP SERPENTS)

Transcribed by Tony Rohrbough
        

Words by Chris Ojeda Music by Byzantine
Arranged by Byzantine

Gtr I (C G C F A D) - 'Untitled'
Gtr II (C G C F A D) - 'Untitled'
Gtr III (C G C F A D) - 'Untitled'

   Intro
    Q=218
   6/4                              4/4
    Gtr I
              PM----|    PM--|
    Q.   Q.   S S S S Q  S S S S  3x Q.   Q.   Q
||--------------------------------||--------------|
||o------------------------------o||--------------|
||--------------------------------||--------------|
||--8----7\-----------------------||-8----7\---4--|
||o-6----5\----------------------o||-6----5\---2--|
||--8----7\---0-0-0-0----0-0-0----||-8----7\---4--|


   6/4                              4/4
              PM----|    PM--|
    Q.   Q.   S S S S Q  S S S S  3x Q.   Q.   Q
||--------------------------------||--------------|
||o------------------------------o||--------------|
||--------------------------------||--------------|
||--8----7\-----------------------||-8----7\---4--|
||o-6----5\----------------------o||-6----5\---2--|
||--8----7\---0-0-0-0----0-0-0----||-8----7\---4--|


 Verse
 7/8
  Gtr I
   H.             +E     +H.             +E
|---------------------|----------------------|
|-11-------------(11)-|-(11)------------(11)-|
|---------------------|----------------------|
|---------------------|----------------------|
|---------------------|----------------------|
|---------------------|----------------------|
|
| Gtr II
|  Q   E E +E  E  +E      Q   E E +E  E  +E
|---------------------|----------------------|
|---------------------|----------------------|
|---------------------|----------------------|
|---------------------|----------------------|
|--1------------------|---1------------------|
|------4-1-(1)-0--(0)-|-------4-1-(1)-0--(0)-|


                     5/8
   +H.          +E     +H        +E
|-------------------|-----------------|
|-(11)---------(11)-|-(11)------(11)--|
|-------------------|-----------------|
|-------------------|-----------------|
|-------------------|-----------------|
|-------------------|-----------------|
|
|   Q   Q  E Q          Q   E Q
|-------------------|-----------------|
|-------------------|-----------------|
|-------------------|-----------------|
|-------------------|-----------------|
|---1---------------|---1-------------|
|-------4--1-0------|-------4-1-------|


 7/8                                                        3/8
  H.            +E    +H.            +E    +H.         +E    +Q.
|-------------------|--------------------|-----------------|--------|
|-6-------------(6)-|-(6)------------(6)-|-(6)---------(6)-|-(6)----|
|-------------------|--------------------|-----------------|--------|
|-------------------|--------------------|-----------------|--------|
|-------------------|--------------------|-----------------|--------|
|-------------------|--------------------|-----------------|--------|
|
| Q   E E +E  E +E     Q   E E +E  E +E     Q   Q  E Q        Q   E
|-------------------|--------------------|-----------------|--------|
|-------------------|--------------------|-----------------|--------|
|-------------------|--------------------|-----------------|--------|
|-------------------|--------------------|-----------------|--------|
|-1-----------------|--1-----------------|--1--------------|--1-----|
|-----4-1-(1)-0-(0)-|------4-1-(1)-0-(0)-|------4--1-0-----|------4-|


 7/8
   H.             +E     +H        +E   Q
|---------------------|-----------------------|
|-12-------------(12)-|-(12)------(12)-15-----|
|---------------------|-----------------------|
|---------------------|-----------------------|
|---------------------|-----------------------|
|---------------------|-----------------------|
|
|  Q   E E +E  E  +E      Q   E E  +E   E +E
|---------------------|-----------------------|
|---------------------|-----------------------|
|---------------------|-----------------------|
|---------------------|-----------------------|
|--2------------------|---2-------------------|
|------4-1-(1)-0--(0)-|-------4-1--(1)--0-(0)-|


                     5/8
   +H       E  +Q      +Q.     Q
|-------------------|--------------|
|-(15)-----12-(12)--|-(12)----11---|
|-------------------|--------------|
|-------------------|--------------|
|-------------------|--------------|
|-------------------|--------------|
|
|   Q   Q   E   Q       Q   E  Q
|-------------------|--------------|
|-------------------|--------------|
|-------------------|--------------|
|-------------------|--------------|
|---2---------------|---2----------|
|-------4---1---0---|-------4--1---|


 7/8
   +H.             +E     +H.             +E
|----------------------|----------------------|
|-(11)------------(11)-|-(11)------------(11)-|
|----------------------|----------------------|
|----------------------|----------------------|
|----------------------|----------------------|
|----------------------|----------------------|
|
|   Q   E E +E  E  +E      Q   E E +E  E  +E
|----------------------|----------------------|
|----------------------|----------------------|
|----------------------|----------------------|
|----------------------|----------------------|
|---1------------------|---1------------------|
|-------4-1-(1)-0--(0)-|-------4-1-(1)-0--(0)-|


                     3/8       4/4
   +H.          +E     +Q.      W
|-------------------|---------|-------------|
|-(11)---------(11)-|-(11)----|-------------|
|-------------------|---------|-------------|
|-------------------|---------|-------------|
|-------------------|---------|-------------|
|-------------------|---------|-------------|
|
|                               PM-------|
|   Q   Q  E Q          Q   E   Q  Q  Q  Q
|-------------------|---------|-------------|
|-------------------|---------|-------------|
|-------------------|---------|-------------|
|-------------------|---------|-------------|
|---1---------------|---1-----|-1--0--1--3--|
|-------4--1-0------|-------4-|-1--0--1--3--|


   Chorus
   6/4                                                         4/4
                                                                          PM
    Q.   Q.   H.        Q.   Q.   H.        Q.   Q.   H.        Q.   Q.   Q
||--------------------|-------------------|-------------------|---------------||
||o-------------------|-------------------|-------------------|--------------o||
||--------------------|-------------------|-------------------|---------------||
||--4----3----0-------|-4----3----0-------|-4----3----0-------|-4----3----1---||
||o-4----3----0-------|-4----3----0-------|-4----3----0-------|-4----3----1--o||
||--4----3----0-------|-4----3----0-------|-4----3----0-------|-4----3----1---||


   Intro
   6/4                              4/4
              PM----|    PM--|
    Q.   Q.   S S S S Q  S S S S  3x Q.   Q.   Q
||--------------------------------||--------------|
||o------------------------------o||--------------|
||--------------------------------||--------------|
||--8----7\-----------------------||-8----7\---4--|
||o-6----5\----------------------o||-6----5\---2--|
||--8----7\---0-0-0-0----0-0-0----||-8----7\---4--|


   6/4                              4/4
              PM----|    PM--|
    Q.   Q.   S S S S Q  S S S S  3x Q.   Q.   Q
||--------------------------------||--------------|
||o------------------------------o||--------------|
||--------------------------------||--------------|
||--8----7\-----------------------||-8----7\---4--|
||o-6----5\----------------------o||-6----5\---2--|
||--8----7\---0-0-0-0----0-0-0----||-8----7\---4--|


   Breakdown
                                         2/4
    PM----------------------------------------|
    E E E E E E E E   E E E E E E E E  3x E E E E
||------------------|------------------||---------|
||o-----------------|-----------------o||---------|
||------------------|------------------||---------|
||------------------|------------------||---------|
||o-3-3-3---3-3-3---|-3-3-3-3-3-3---3-o||-3-3-3---|
||--3-3-3---3-3-3---|-3-3-3-3-3-3---3--||-3-3-3---|


   4/4
    Gtr I
    PM----------------------------------------------------------|
    E E E E E E E E   E E E E E E E E   E E E E E E E E   E E E E Q  Q
||------------------|-----------------|-----------------|---------------|
||o-----------------|-----------------|-----------------|---------------|
||------------------|-----------------|-----------------|---------------|
||------------------|-----------------|-----------------|---------1--8--|
||o-0-0-0---0-0-0-0-|---0---0-0-0-0---|-0-0-0---0-0-0-0-|---0---0-------|
||--0-0-0---0-0-0-0-|---0---0-0-0-0---|-0-0-0---0-0-0-0-|---0---0-1--8--|
|
|   Gtr II
|   PM----------------------------------------------------------|
|   E E E E E E E E   E E E E E E E E   E E E E E E E E   E E E E Q  Q
||------------------|-----------------|-----------------|---------------|
||o-----------------|-----------------|-----------------|---------------|
||------------------|-----------------|-----------------|---------8--3--|
||------------------|-----------------|-----------------|---------------|
||o-0-0-0---0-0-0-0-|---0---0-0-0-0---|-0-0-0---0-0-0-0-|---0---0-6--1--|
||--0-0-0---0-0-0-0-|---0---0-0-0-0---|-0-0-0---0-0-0-0-|---0---0-------|


  PM----------------------------------------------------------|
  E E E E E E E E   E E E E E E E E   E E E E E E E E   E E E E Q  Q
|-----------------|-----------------|-----------------|----------------||
|-----------------|-----------------|-----------------|---------------o||
|-----------------|-----------------|-----------------|----------------||
|-----------------|-----------------|-----------------|---------6--1---||
|-0-0-0---0-0-0-0-|---0---0-0-0-0---|-0-0-0---0-0-0-0-|---0---0-------o||
|-0-0-0---0-0-0-0-|---0---0-0-0-0---|-0-0-0---0-0-0-0-|---0---0-6--1---||
|
| PM----------------------------------------------------------|
| E E E E E E E E   E E E E E E E E   E E E E E E E E   E E E E Q  Q
|-----------------|-----------------|-----------------|----------------||
|-----------------|-----------------|-----------------|---------------o||
|-----------------|-----------------|-----------------|---------8--3---||
|-----------------|-----------------|-----------------|----------------||
|-0-0-0---0-0-0-0-|---0---0-0-0-0---|-0-0-0---0-0-0-0-|---0---0-6--1--o||
|-0-0-0---0-0-0-0-|---0---0-0-0-0---|-0-0-0---0-0-0-0-|---0---0--------||


 Solo - Tony
  Gtr II
  S S S S S  S S S  S S S  S S S S  S   S S  S S  S  S S  S  S  S S  S  S S  S  S
|-------------------------------------|-------------------------------------------|
|-------------------------------------|-------------------------------------------|
|-------------------------------------|----------------9-10-12-10-9---------------|
|--------------7-8-10-8-7-------------|-7-8-10-8-10-12--------------12-10-8-10-12-|
|-5-7-8-7-8-10------------10-8-7-8-10-|-------------------------------------------|
|-------------------------------------|-------------------------------------------|
|
| Gtr I
| PM-------------------------------------------------------------------------------
| E   E   E    E    E   E    E   E      E    E    E    E     E    E     E    E
|-------------------------------------|-------------------------------------------|
|-------------------------------------|-------------------------------------------|
|-------------------------------------|-------------------------------------------|
|-------------------------------------|-------------------------------------------|
|-------------------------------------|-------------------------------------------|
|-0---0---0---------0---0----0---0----|------0---------0-----0----0-----0---------|


  S  S  S  S  S  S  S  S  S  S  S  S  S  S  S  S    S  S  S  S  S  S  S  S  E E Q
|------------------------------------------------|-------------------13-15-17--------|
|------------------11-13-15-13-11----------------|-11-13-15-13-15-17-----------------|
|-9-10-12-10-12-14----------------14-12-10-12-14-|-----------------------------------|
|------------------------------------------------|-----------------------------------|
|------------------------------------------------|-----------------------------------|
|------------------------------------------------|-----------------------------------|
|
|--------------------------------------------------------------------|
| E     E     E     E     E     E     E     E       E     E     E     E     Q   Q
|------------------------------------------------|-----------------------------------|
|------------------------------------------------|-----------------------------------|
|------------------------------------------------|--------------------------8---3----|
|------------------------------------------------|-----------------------------------|
|------------------------------------------------|--------------------------6---1----|
|-0-----0-----0-----------0-----0-----0-----0----|--------0-----------0--------------|


                                           |----3----|
    E E E   E  E  E   E  E    E   E  E  E  Q    Q    Q
|--------------------------|-----------------------------|
|--------------------------|-----------------------------|
|-----7-7-----10-10-----12-|-12-----14-14------17---19---|
|-/10-----/12-------/15----|----/17-------19-------------|
|--------------------------|-----------------------------|
|--------------------------|-----------------------------|
|
|   PM----------------------------------------------------
|   E E E   E  E  E   E  E    E   E  E  E  E E    E    E
|--------------------------|-----------------------------|
|--------------------------|-----------------------------|
|--------------------------|-----------------------------|
|--------------------------|-----------------------------|
|--------------------------|-----------------------------|
|---0-0-0------0--0---0--0-|------0-----0--0-0----0------|


                                                 ~~
   E      E  E  E  E  E  E      E    E  E  E  E  H
|---------------------------------|--------------------|
|---------------------------------|--------------------|
|-19b21rp17-19----17-19-19b21rp17-|-19----17-19-17-----|
|--------------19-----------------|----19--------------|
|---------------------------------|--------------------|
|---------------------------------|--------------------|
|
|--------------------------------------------|
|  E      E  E  E  E  E  E      E    E  E  E  E  Q  Q
|---------------------------------|--------------------|
|---------------------------------|--------------------|
|---------------------------------|--------------8--3--|
|---------------------------------|--------------------|
|---------------------------------|--------------6--1--|
|--0------0--0-----0--0--0------0-|-----0-----0--------|


   Q       E  S  S  Q       E  S  S    Q       E  S  S  Q       E  S  S
|---------10---------------10-------|---------10---------------10-------|
|-13b15------13p10-13b15------13p10-|------------13p10-13b15------13p10-|
|-----------------------------------|-12b14-----------------------------|
|-----------------------------------|-----------------------------------|
|-----------------------------------|-----------------------------------|
|-----------------------------------|-----------------------------------|
|
|  PM--------------------------------------------------------------------
|  E    E  E  E     E    E  E  E       E    E  E  E     E    E  E  E
|-----------------------------------|-----------------------------------|
|-----------------------------------|-----------------------------------|
|-----------------------------------|-----------------------------------|
|-----------------------------------|-----------------------------------|
|-----------------------------------|-----------------------------------|
|--0----0--0--------0----0--0--0----|-------0-----0-----0----0--0-------|


   Q        E  E  E  E  E      E    E  E  E  E  H
|--------------------------------|--------------------|
|--------------------------------|--------------------|
|-12b14rp==10----10-12-12b14rp10-|-12----10-12-10-----|
|-------------12-----------------|----12--------------|
|--------------------------------|--------------------|
|--------------------------------|--------------------|
|
|-------------------------------------------|
|  E     E  E  E  E  E  E      E    E  E  E  E  Q  Q
|--------------------------------|--------------------|
|--------------------------------|--------------------|
|--------------------------------|--------------8--3--|
|--------------------------------|--------------------|
|--------------------------------|--------------6--1--|
|--0-----0--0-----0--0--0------0-|-----0-----0--------|


   |----3----|
   Q    Q    Q    H              W
|-----------17---17pb20r======|=17pb20r==============|
|------15---------------------|----------------------|
|-17--------------------------|----------------------|
|-----------------------------|----------------------|
|-----------------------------|----------------------|
|-----------------------------|----------------------|
|
|  PM-------------------------------------------------
|  E E    E    E  E     E E E    E     E E E E E E E
|-----------------------------|----------------------|
|-----------------------------|----------------------|
|-----------------------------|----------------------|
|-----------------------------|----------------------|
|-----------------------------|----------------------|
|--0-0----0-------0-----0-0-0-|--------0---0-0-0-0---|


   |----3----|
   Q    Q    Q    H              W
|-----------17---17pb20r======|=17pb20r============|
|------15---------------------|--------------------|
|-17--------------------------|--------------------|
|-----------------------------|--------------------|
|-----------------------------|--------------------|
|-----------------------------|--------------------|
|
|------------------------------------------|
|  E E    E    E  E     E E E    E     E E E Q  Q
|-----------------------------|--------------------|
|-----------------------------|--------------------|
|-----------------------------|--------------8--3--|
|-----------------------------|--------------------|
|-----------------------------|--------------6--1--|
|--0-0----0-------0-----0-0-0-|--------0---0-------|


   Chorus
   6/4                                                         4/4
                                                                          PM
    Q.   Q.   H.        Q.   Q.   H.        Q.   Q.   H.        Q.   Q.   Q
||--------------------|-------------------|-------------------|---------------||
||o-------------------|-------------------|-------------------|--------------o||
||--------------------|-------------------|-------------------|---------------||
||--4----3----0-------|-4----3----0-------|-4----3----0-------|-4----3----1---||
||o-4----3----0-------|-4----3----0-------|-4----3----0-------|-4----3----1--o||
||--4----3----0-------|-4----3----0-------|-4----3----0-------|-4----3----1---||


   Intro
   6/4                              4/4
              PM----|    PM--|
    Q.   Q.   S S S S Q  S S S S  3x Q.   Q.   Q
||--------------------------------||--------------|
||o------------------------------o||--------------|
||--------------------------------||--------------|
||--8----7\-----------------------||-8----7\---4--|
||o-6----5\----------------------o||-6----5\---2--|
||--8----7\---0-0-0-0----0-0-0----||-8----7\---4--|


   6/4                              4/4
              PM----|    PM--|
    Q.   Q.   S S S S Q  S S S S  3x Q.   Q.   Q
||--------------------------------||--------------|
||o------------------------------o||--------------|
||--------------------------------||--------------|
||--8----7\-----------------------||-8----7\---4--|
||o-6----5\----------------------o||-6----5\---2--|
||--8----7\---0-0-0-0----0-0-0----||-8----7\---4--|


 Verse
 7/8                                                5/8
  Q  E E +E  E +E    Q  E E +E  E +E    Q  Q  E Q    Q  E Q
|------------------|------------------|------------|----------|
|------------------|------------------|------------|----------|
|------------------|------------------|------------|----------|
|------------------|------------------|------------|----------|
|-1----------------|-1----------------|-1----------|-1--------|
|----4-1-(1)-0-(0)-|----4-1-(1)-0-(0)-|----4--1-0--|----4-1---|


 7/8                                                3/8
  Q  E E +E  E +E    Q  E E +E  E +E    Q  Q  E Q    Q  E
|------------------|------------------|------------|------|
|------------------|------------------|------------|------|
|------------------|------------------|------------|------|
|------------------|------------------|------------|------|
|-1----------------|-1----------------|-1----------|-1----|
|----4-1-(1)-0-(0)-|----4-1-(1)-0-(0)-|----4--1-0--|----4-|


 7/8                                             5/8
  PM----------------------------------------------------|
  E E E E E E E   E E E E E E E   E E E E E E E   E E E E E
|---------------|---------------|---------------|------------|
|---------------|---------------|---------------|------------|
|---------------|---------------|---------------|------------|
|---------------|---------------|---------------|------------|
|-0---0-0---0---|-0---0-0---0---|-0---0---0-0---|-0---0-0----|
|-0---0-0---0---|-0---0-0---0---|-0---0---0-0---|-0---0-0----|


 7/8                                             3/8
  PM--------------------------------------------------|
  E E E E E E E   E E E E E E E   E E E E E E E   E E E
|---------------|---------------|---------------|-------|
|---------------|---------------|---------------|-------|
|---------------|---------------|---------------|-------|
|---------------|---------------|---------------|-------|
|-0---0-0---0---|-0---0-0---0---|-0---0---0-0---|-0---0-|
|-0---0-0---0---|-0---0-0---0---|-0---0---0-0---|-0---0-|


 7/8                                             5/8
  E E E E E E E   E E E E E E E   E E E E E E E   E E E E E
|---------------|---------------|---------------|------------|
|---------------|---------------|---------------|------------|
|---------------|---------------|---------------|------------|
|---------------|---------------|---------------|------------|
|-0---0-0---0---|-0---0-0---0---|-0---0---0-0---|-0---0-0----|
|-0---0-0---0---|-0---0-0---0---|-0---0---0-0---|-0---0-0----|


 7/8                                             3/8     4/4
                                                          PM-------|
  E E E E E E E   E E E E E E E   E E E E E E E   E E E   Q  Q  Q  Q
|---------------|---------------|---------------|-------|-------------|
|---------------|---------------|---------------|-------|-------------|
|---------------|---------------|---------------|-------|-------------|
|---------------|---------------|---------------|-------|-------------|
|-0---0-0---0---|-0---0-0---0---|-0---0---0-0---|-0---0-|-1--0--1--3--|
|-0---0-0---0---|-0---0-0---0---|-0---0---0-0---|-0---0-|-1--0--1--3--|


 7/8
  Gtr I
   H.             +E     +H.             +E
|---------------------|----------------------|
|-11-------------(11)-|-(11)------------(11)-|
|---------------------|----------------------|
|---------------------|----------------------|
|---------------------|----------------------|
|---------------------|----------------------|
|
| Gtr II
|  Q   E E +E  E  +E      Q   E E +E  E  +E
|---------------------|----------------------|
|---------------------|----------------------|
|---------------------|----------------------|
|---------------------|----------------------|
|--1------------------|---1------------------|
|------4-1-(1)-0--(0)-|-------4-1-(1)-0--(0)-|


                     5/8
   +H.          +E     +H        +E
|-------------------|-----------------|
|-(11)---------(11)-|-(11)------(11)--|
|-------------------|-----------------|
|-------------------|-----------------|
|-------------------|-----------------|
|-------------------|-----------------|
|
|   Q   Q  E Q          Q   E Q
|-------------------|-----------------|
|-------------------|-----------------|
|-------------------|-----------------|
|-------------------|-----------------|
|---1---------------|---1-------------|
|-------4--1-0------|-------4-1-------|


 7/8                                                        3/8
  H.            +E    +H.            +E    +H.         +E    +Q.
|-------------------|--------------------|-----------------|--------|
|-6-------------(6)-|-(6)------------(6)-|-(6)---------(6)-|-(6)----|
|-------------------|--------------------|-----------------|--------|
|-------------------|--------------------|-----------------|--------|
|-------------------|--------------------|-----------------|--------|
|-------------------|--------------------|-----------------|--------|
|
| Q   E E +E  E +E     Q   E E +E  E +E     Q   Q  E Q        Q   E
|-------------------|--------------------|-----------------|--------|
|-------------------|--------------------|-----------------|--------|
|-------------------|--------------------|-----------------|--------|
|-------------------|--------------------|-----------------|--------|
|-1-----------------|--1-----------------|--1--------------|--1-----|
|-----4-1-(1)-0-(0)-|------4-1-(1)-0-(0)-|------4--1-0-----|------4-|


 7/8
   H.             +E     +H        +E   Q
|---------------------|-----------------------|
|-12-------------(12)-|-(12)------(12)-15-----|
|---------------------|-----------------------|
|---------------------|-----------------------|
|---------------------|-----------------------|
|---------------------|-----------------------|
|
|  Q   E E +E  E  +E      Q   E E  +E   E +E
|---------------------|-----------------------|
|---------------------|-----------------------|
|---------------------|-----------------------|
|---------------------|-----------------------|
|--2------------------|---2-------------------|
|------4-1-(1)-0--(0)-|-------4-1--(1)--0-(0)-|


                     5/8
   +H       E  +Q      +Q.     Q
|-------------------|--------------|
|-(15)-----12-(12)--|-(12)----11---|
|-------------------|--------------|
|-------------------|--------------|
|-------------------|--------------|
|-------------------|--------------|
|
|   Q   Q   E   Q       Q   E  Q
|-------------------|--------------|
|-------------------|--------------|
|-------------------|--------------|
|-------------------|--------------|
|---2---------------|---2----------|
|-------4---1---0---|-------4--1---|


 7/8
   H.             +E     +H.             +E
|---------------------|----------------------|
|-11-------------(11)-|-(11)------------(11)-|
|---------------------|----------------------|
|---------------------|----------------------|
|---------------------|----------------------|
|---------------------|----------------------|
|
|  Q   E E +E  E  +E      Q   E E +E  E  +E
|---------------------|----------------------|
|---------------------|----------------------|
|---------------------|----------------------|
|---------------------|----------------------|
|--1------------------|---1------------------|
|------4-1-(1)-0--(0)-|-------4-1-(1)-0--(0)-|


                     3/8       4/4
   +H.          +E     +Q.      W
|-------------------|---------|-------------|
|-(11)---------(11)-|-(11)----|-------------|
|-------------------|---------|-------------|
|-------------------|---------|-------------|
|-------------------|---------|-------------|
|-------------------|---------|-------------|
|
|                               PM-------|
|   Q   Q  E Q          Q   E   Q  Q  Q  Q
|-------------------|---------|-------------|
|-------------------|---------|-------------|
|-------------------|---------|-------------|
|-------------------|---------|-------------|
|---1---------------|---1-----|-1--0--1--3--|
|-------4--1-0------|-------4-|-1--0--1--3--|


   6/4
    Gtr III
     Q    E  E  E  E  Q   E  E  E  E    Q    E  E  E  E  Q   E  E  E  E
||--10---10-10-10-10-10--10-10-10-10-|-10---10-10-10-10-10--10-10-10-10-|
||o--8----8--8--8--8--8---8--8--8--8-|--8----8--8--8--8--8---8--8--8--8-|
||---8----8--8--8--8--8---8--8--8--8-|--8----8--8--8--8--8---8--8--8--8-|
||-----------------------------------|----------------------------------|
||o----------------------------------|----------------------------------|
||-----------------------------------|----------------------------------|
|
|   Gtr I
|    W.                                +W.
||-----------------------------------|----------------------------------|
||o----------------------------------|----------------------------------|
||-----------------------------------|----------------------------------|
||---1-------------------------------|-(1)------------------------------|
||o--1-------------------------------|-(1)------------------------------|
||---1-------------------------------|-(1)------------------------------|


   Q    E  E  E  E  Q   E  E  E  E    Q    E  E  E  E  Q   E  E  E  E
|-11---11-11-11-11-11--11-11-11-11-|-11---11-11-11-11-11--11-11-11-11--|
|--8----8--8--8--8--8---8--8--8--8-|--8----8--8--8--8--8---8--8--8--8--|
|--8----8--8--8--8--8---8--8--8--8-|--8----8--8--8--8--8---8--8--8--8--|
|----------------------------------|-----------------------------------|
|----------------------------------|-----------------------------------|
|----------------------------------|-----------------------------------|
|
| +W.                                +W.
|----------------------------------|-----------------------------------|
|----------------------------------|-----------------------------------|
|----------------------------------|-----------------------------------|
|-(1)------------------------------|-(1)-------------------------------|
|-(1)------------------------------|-(1)-------------------------------|
|-(1)------------------------------|-(1)-------------------------------|


   Q    E  E  E  E  Q   E  E  E  E    Q    E  E  E  E  Q   E  E  E  E
|-10---10-10-10-10-10--10-10-10-10-|-10---10-10-10-10-10--10-10-10-10-|
|--8----8--8--8--8--8---8--8--8--8-|--8----8--8--8--8--8---8--8--8--8-|
|--8----8--8--8--8--8---8--8--8--8-|--8----8--8--8--8--8---8--8--8--8-|
|----------------------------------|----------------------------------|
|----------------------------------|----------------------------------|
|----------------------------------|----------------------------------|
|
| +W.                                +W.
|----------------------------------|----------------------------------|
|----------------------------------|----------------------------------|
|----------------------------------|----------------------------------|
|-(1)------------------------------|-(1)------------------------------|
|-(1)------------------------------|-(1)------------------------------|
|-(1)------------------------------|-(1)------------------------------|


   Q    E  E  E  E  Q   E  E  E  E    Q    E  E  E  E  Q   E  E  E  E
|-11---11-11-11-11-11--11-11-11-11-|-11---11-11-11-11-11--11-11-11-11-----||
|--8----8--8--8--8--8---8--8--8--8-|--8----8--8--8--8--8---8--8--8--8----o||
|--8----8--8--8--8--8---8--8--8--8-|--8----8--8--8--8--8---8--8--8--8-----||
|----------------------------------|--------------------------------------||
|----------------------------------|-------------------------------------o||
|----------------------------------|--------------------------------------||
|
| +W.                                +W.
|----------------------------------|--------------------------------------||
|----------------------------------|-------------------------------------o||
|----------------------------------|--------------------------------------||
|-(1)------------------------------|-(1)----------------------------------||
|-(1)------------------------------|-(1)---------------------------------o||
|-(1)------------------------------|-(1)----------------------------------||


     Q   Q  Q   Q   Q   Q     Q   Q  Q   Q   Q   Q
||-------------------------|------------------------|
||o-------------3----------|-------------3----------|
||----------0-------0------|---------0-------0------|
||-------1--------------1--|------1--------------1--|
||o--3---------------------|--2---------------------|
||-------------------------|------------------------|
|
|    H.         Q   Q   Q     H.         Q   Q   Q
||-------------------------|------------------------|
||o------------------------|------------------------|
||-------------------------|------------------------|
||--12---------12--12--12--|-12---------12--12--12--|
||o-10---------10--10--10--|-10---------10--10--10--|
||--10---------10--10--10--|--9----------9---9---9--|


   Q   Q  Q   Q   Q   Q     Q   Q  Q   Q   Q   Q     4x
|------------------------|---------------------------||
|-------------3----------|-------------2------------o||
|---------0-------0------|---------0-------0---------||
|------3--------------3--|------2--------------2-----||
|--1---------------------|--0-----------------------o||
|------------------------|---------------------------||
|
|  H.         Q   Q   Q     H.         Q   Q   Q     4x
|------------------------|---------------------------||
|------------------------|--------------------------o||
|------------------------|---------------------------||
|-12---------12--12--12--|-11---------11--11--11-----||
|-10---------10--10--10--|-10---------10--10--10----o||
|--8----------8---8---8--|--7----------7---7---7-----||


  Gtr III
  Q   Q  Q  Q  Q  Q    Q   Q  Q  Q  Q  Q
|--------------------|--------------------|
|-4---------4--------|-3---------3--------|
|-----0--------0-----|-----0--------0-----|
|--------1--------1--|--------1--------1--|
|--------------------|--------------------|
|--------------------|--------------------|
|
| Gtr II
| W.                   W.
|--------------------|--------------------|
|-8------------------|-6------------------|
|--------------------|--------------------|
|-5------------------|-3------------------|
|--------------------|--------------------|
|--------------------|--------------------|
|
| Gtr I
| W.                   W.
|--------------------|--------------------|
|--------------------|--------------------|
|--------------------|--------------------|
|--------------------|--------------------|
|--------------------|--------------------|
|-1------------------|-1------------------|


  Q   Q  Q  Q  Q  Q    Q   Q  Q  Q  Q  Q
|--------------------|----------------------|
|-4---------4--------|-4---------4----------|
|-----0--------0-----|-----3--------3-------|
|--------1--------1--|--------1--------1----|
|--------------------|----------------------|
|--------------------|----------------------|
|
| W.                   W.
|--------------------|----------------------|
|-8------------------|-4--------------------|
|--------------------|----------------------|
|-5------------------|-1--------------------|
|--------------------|----------------------|
|--------------------|----------------------|
|
| W.                   W.
|--------------------|----------------------|
|--------------------|----------------------|
|--------------------|----------------------|
|--------------------|----------------------|
|--------------------|----------------------|
|-1------------------|-1--------------------|


  Q   Q  Q  Q  Q  Q    Q   Q  Q  Q  Q  Q
|--------------------|--------------------|
|-4---------4--------|-3---------3--------|
|-----0--------0-----|-----0--------0-----|
|--------1--------1--|--------1--------1--|
|--------------------|--------------------|
|--------------------|--------------------|
|
| W.                   W.
|--------------------|--------------------|
|-8------------------|-6------------------|
|--------------------|--------------------|
|-5------------------|-3------------------|
|--------------------|--------------------|
|--------------------|--------------------|
|
| W.                   W.
|--------------------|--------------------|
|--------------------|--------------------|
|--------------------|--------------------|
|--------------------|--------------------|
|--------------------|--------------------|
|-1------------------|-1------------------|


  Q   Q  Q  Q  Q  Q     Q   Q  Q  Q  Q  Q
|--------------------|-----------------------|
|-4---------4--------|--4---------4----------|
|-----0--------0-----|------3--------3-------|
|--------1--------1--|---------1--------1----|
|--------------------|-----------------------|
|--------------------|-----------------------|
|
| W.                    W.
|--------------------|-----------------------|
|-8------------------|-11--------------------|
|--------------------|-----------------------|
|-5------------------|--8--------------------|
|--------------------|-----------------------|
|--------------------|-----------------------|
|
| W.                    Q   Q  Q  Q  Q  Q
|--------------------|-----------------------|
|--------------------|-----------------------|
|--------------------|-----------------------|
|--------------------|-----------------------|
|--------------------|--6---6--6--6--6--6----|
|-1------------------|--6---6--6--6--6--6----|


    Gtr III
     Q   Q  Q   Q   Q   Q     Q   Q  Q   Q   Q   Q
||-------------------------|------------------------|
||o-------------3----------|-------------3----------|
||----------0-------0------|---------0-------0------|
||-------1--------------1--|------1--------------1--|
||o--3---------------------|--2---------------------|
||-------------------------|------------------------|
|
|   Gtr I
|    H.         Q   Q   Q     H.         Q   Q   Q
||-------------------------|------------------------|
||o------------------------|------------------------|
||-------------------------|------------------------|
||--12---------12--12--12--|-12---------12--12--12--|
||o-10---------10--10--10--|-10---------10--10--10--|
||--10---------10--10--10--|--9----------9---9---9--|


   Q   Q  Q   Q   Q   Q     Q   Q  Q   Q   Q   Q     4x
|------------------------|---------------------------||
|-------------3----------|-------------2------------o||
|---------0-------0------|---------0-------0---------||
|------3--------------3--|------2--------------2-----||
|--1---------------------|--0-----------------------o||
|------------------------|---------------------------||
|
|  H.         Q   Q   Q     H.         Q   Q   Q     4x
|------------------------|---------------------------||
|------------------------|--------------------------o||
|------------------------|---------------------------||
|-12---------12--12--12--|-11---------11--11--11-----||
|-10---------10--10--10--|-10---------10--10--10----o||
|--8----------8---8---8--|--7----------7---7---7-----||


  Gtr III
  Q   Q  Q  Q  Q  Q    Q   Q  Q  Q  Q  Q
|--------------------|--------------------|
|-4---------4--------|-3---------3--------|
|-----0--------0-----|-----0--------0-----|
|--------1--------1--|--------1--------1--|
|--------------------|--------------------|
|--------------------|--------------------|
|
| Gtr II
| W.                   W.
|--------------------|--------------------|
|-8------------------|-6------------------|
|--------------------|--------------------|
|-5------------------|-3------------------|
|--------------------|--------------------|
|--------------------|--------------------|
|
| Gtr I
| W.                   W.
|--------------------|--------------------|
|--------------------|--------------------|
|--------------------|--------------------|
|--------------------|--------------------|
|--------------------|--------------------|
|-1------------------|-1------------------|


  Q   Q  Q  Q  Q  Q    Q   Q  Q  Q  Q  Q
|--------------------|----------------------|
|-4---------4--------|-4---------4----------|
|-----0--------0-----|-----3--------3-------|
|--------1--------1--|--------1--------1----|
|--------------------|----------------------|
|--------------------|----------------------|
|
| W.                   W.
|--------------------|----------------------|
|-8------------------|-4--------------------|
|--------------------|----------------------|
|-5------------------|-1--------------------|
|--------------------|----------------------|
|--------------------|----------------------|
|
| W.                   W.
|--------------------|----------------------|
|--------------------|----------------------|
|--------------------|----------------------|
|--------------------|----------------------|
|--------------------|----------------------|
|-1------------------|-1--------------------|


  Q   Q  Q  Q  Q  Q    Q   Q  Q  Q  Q  Q
|--------------------|--------------------|
|-4---------4--------|-3---------3--------|
|-----0--------0-----|-----0--------0-----|
|--------1--------1--|--------1--------1--|
|--------------------|--------------------|
|--------------------|--------------------|
|
| W.                   W.
|--------------------|--------------------|
|-8------------------|-6------------------|
|--------------------|--------------------|
|-5------------------|-3------------------|
|--------------------|--------------------|
|--------------------|--------------------|
|
| W.                   W.
|--------------------|--------------------|
|--------------------|--------------------|
|--------------------|--------------------|
|--------------------|--------------------|
|--------------------|--------------------|
|-1------------------|-1------------------|


  Q   Q  Q  Q  Q  Q     Q   Q  Q  Q  Q  Q
|--------------------|-----------------------|
|-4---------4--------|--4---------4----------|
|-----0--------0-----|------3--------3-------|
|--------1--------1--|---------1--------1----|
|--------------------|-----------------------|
|--------------------|-----------------------|
|
| W.                    W.
|--------------------|-----------------------|
|-8------------------|-11--------------------|
|--------------------|-----------------------|
|-5------------------|--8--------------------|
|--------------------|-----------------------|
|--------------------|-----------------------|
|
| W.                    Q   Q  Q  Q  Q  Q
|--------------------|-----------------------|
|--------------------|-----------------------|
|--------------------|-----------------------|
|--------------------|-----------------------|
|--------------------|--6---6--6--6--6--6----|
|-1------------------|--6---6--6--6--6--6----|


  Gtr II
   W.               W.               W.                W.               W.
|----------------|----------------|----------------|-----------------|--------*|
|----------------|----------------|----------------|-----------------|--------*|
|----------------|----------------|----------------|-----------------|--------*|
|-12-------------|-12-------------|--8-------------|---8-------------|--2-----*|
|-10-------------|-10-------------|--6-------------|---6-------------|--2-----*|
|-10-------------|--9-------------|--6-------------|---5-------------|--2-----*|
|
| Gtr I
|  W.              +W.               W.               +W.               W.
|----------------|----------------|----------------|-----------------|--------*|
|--8-------------|-(8)------------|-11-------------|-(11)------------|-12-----*|
|----------------|----------------|----------------|-----------------|--------*|
|--5-------------|-(5)------------|--8-------------|--(8)------------|--9-----*|
|----------------|----------------|----------------|-----------------|--------*|
|----------------|----------------|----------------|-----------------|--------*|



Duration Legend
---------------
W - whole; H - half; Q - quarter; E - 8th; S - 16th; T - 32nd; X - 64th; a - acciaccatura
+ - note tied to previous; . - note dotted; .. - note double dotted
Uncapitalized letters represent notes that are staccato (1/2 duration)
Irregular groupings are notated above the duration line
Duration letters will always appear directly above the note/fret number it represents the
duration for.  Duration letters with no fret number below them represent rests.  Multi-
bar rests are notated in the form Wxn, where n is the number of bars to rest for.  Low
melody durations appear below the staff

Tablature Legend
----------------
 h   - hammer-on
 p   - pull-off
 b   - bend
 pb  - pre-bend
 r   - bend release (if no number after the r, then release immediately)
 /\  - slide into or out of (from/to "nowhere")
 s   - legato slide
 S   - shift slide
 - natural harmonic
[n]  - artificial harmonic
n(n) - tapped harmonic
 ~   - vibrato
 tr  - trill
 T   - tap
 TP  - trem. picking
 PM  - palm muting
\n/  - tremolo bar dip; n = amount to dip
 \n  - tremolo bar down
 n/  - tremolo bar up
/n\  - tremolo bar inverted dip
 =   - hold bend; also acts as connecting device for hammers/pulls
 <> - volume swell (louder/softer)
 x   - on rhythm slash represents muted slash
 o   - on rhythm slash represents single note slash

Misc Legend
-----------
 |  - bar
||  - double bar
||o - repeat start
o|| - repeat end
*|  - double bar (ending)
 :  - bar (freetime)
 $  - Segno
 &  - Coda
Tempo markers -  = BPM(8/16=s8/s16), where s8 = swing 8ths, s16 = swing 16ths

Добавлено: 14.07.2012
Другие материалы по этой песне:

Страница создана 08.04.2012
http://primanota.ru/byzantine/temporary-temples-chords.htm
Привет, Гость.
Предлагаем пройти революционный курс по гитаре.
Подарок от PrimaNota.Ru, забирай!