PrimaNota.ru - самый крупный в мире бесплатный архив песенных текстов, аккордов, табулатур и нот


Byzantine - Taking Up Serpents - таба, видео

Регистрация Запомнить меня
Войти через:  Facebook Google Twitter Vk Yandex Mail.ru

Byzantine - Taking Up Serpents - таба, видео

Печатать
Просмотров: 172
As recorded by Byzantine
(From the 2005 Album ... AND THEY SHALL TAKE UP SERPENTS)

Transcribed by Tony Rohrbough
        

Words by Chris Ojeda Music by Byzantine
Arranged by Byzantine

Gtr I (C G C F A D) - 'Untitled'
Gtr II (C G C F A D) - 'Untitled'
Gtr III (C G C F A D) - 'Untitled'

   Intro
    Q=138
   4/4
    Gtr I
        PM    PM    PM    PM------------------------|
    |-3-| |-3-| |-3-| |-3-|   |-3-| |-3-| |-3-| |-3-|
    E E E E E E E E E E E E   E E E E E E E E E E E E  3x
||--------------------------|--------------------------||
||o-------------------------|-------------------------o||
||--------------------------|--------------------------||
||--------------------------|--------------------------||
||o-3S2-0-3S2-0-3S2-0-3S2-0-|-------------------------o||
||--3S2-0-3S2-0-3S2-0-3S2-0-|-4-3-1-0-4-3-1-0-4-3-1-0--||
|
|   Gtr II
|       PM    PM    PM    PM------------------------|
|   |-3-| |-3-| |-3-| |-3-|   |-3-| |-3-| |-3-| |-3-|
|   E E E E E E E E E E E E   E E E E E E E E E E E E  3x
||--------------------------|--------------------------||
||o-------------------------|-------------------------o||
||--------------------------|--------------------------||
||--------------------------|--------------------------||
||o-3S2-0-3S2-0-3S2-0-3S2-0-|-------------------------o||
||--3S2-0-3S2-0-3S2-0-3S2-0-|-4-3-1-0-4-3-1-0-4-3-1-0--||


      PM    PM    PM    PM---------------------------|
  |-3-| |-3-| |-3-| |-3-|   |--3--| |-3--| |-3-| |-3-|
  E E E E E E E E E E E E   E E   E E  E E E E E E E E
|-------------------------|----------------------------|
|-------------------------|----------------------------|
|-------------------------|----------------------------|
|-------------------------|----------------------------|
|-3S2-0-3S2-0-3S2-0-3S2-0-|----------------------------|
|-3S2-0-3S2-0-3S2-0-3S2-0-|-4-3---1-0--4-3-1-0-4-3-1-0-|
|
|     PM    PM    PM    PM
| |-3-| |-3-| |-3-| |-3-|
| E E E E E E E E E E E E   E   E   H.
|-------------------------|----------------------------|
|-------------------------|----------------------------|
|-------------------------|----------------------------|
|-------------------------|----------------------------|
|-3S2-0-3S2-0-3S2-0-3S2-0-|-4--------------------------|
|-3S2-0-3S2-0-3S2-0-3S2-0-|-4--------------------------|


   Verse
   4/4
        PM--|       PM--------|       PM--|       PM
    |-3-| |-3-| |-3-| |-3-|   |-3-| |-3-| |-3-| |-3-|
    E E E E E E E E E E E E   E E E E E E E E E E E E
||--------------------------|-------------------------|
||o-------------------------|-------------------------|
||--------------------------|-------------------------|
||--------------------------|-------------------------|
||o-5S6-0---0---5S6-0---0---|-0---5S6-0---0---5S6-0---|
||--5S6-0---0---5S6-0---0---|-0---5S6-0---0---5S6-0---|


  PM--|       PM--|         PM------|       PM
  |-3-| |-3-| |-3-| |-3-|   |-3-| |-3-| |-3-| |3|
  E E E E E E E E E E E E   E E E E E E E E E E Q  4x
|-------------------------|------------------------||
|-------------------------|-----------------------o||
|-------------------------|------------------------||
|-------------------------|------------------------||
|-0---0---5S6-0---0---5S6-|-0---0---0---5S6-0---8-o||
|-0---0---5S6-0---0---5S6-|-0---0---0---5S6-0---8--||


   Chorus
   4/4
    Gtr I
    PM--|   PM  PM--|               PM--|   PM  PM--|
    |-3-| |-3-| |-3-|               |-3-| |-3-| |-3-|
    E E E E E E E E E Q       Q     E E E E E E E E E
||--------------------------|-------------------------|
||o-------------------------|-------------------------|
||--------------------------|-------------------------|
||--------3---3-------------|-------------3---3-------|
||o-2-2-2-------2-2-2-------|-------2-2-2-------2-2-2-|
||--2-2-2---2---2-2-2-------|-------2-2-2---2---2-2-2-|
|
|   Gtr II
|   PM--|       PM--|   PM    PM  PM----|       PM--|
|   |-3-|       |-3-| |-3-|   |-3-| |-3-|       |-3-|
|   E E E Q     E E E E E E   E E E E E E Q     E E E
||--------------------------|-------------------------|
||o-------------------------|-------------------------|
||--------------------------|-------------------------|
||--------------------3---3-|---3---------------------|
||o-2-2-2-------2-2-2-------|-------2-2-2-------2-2-2-|
||--2-2-2-------2-2-2---2---|-2---2-2-2-2-------2-2-2-|


              PM--|   PM    PM--|
              |-3-| |-3-|   |-3-|       |-3-| |-3-|
  H           E E E E E E   E E E Q     E E E E E E
|-------------------------|--------------------------||
|-------------------------|-------------------------o||
|-------------------------|---------------2-2-2-2-2--||
|-------------------3---3-|---------------0-0-0-0-0--||
|-------------2-2-2-------|-2-2-2-------------------o||
|-------------2-2-2---2---|-2-2-2--------------------||
|
|   PM      PM----|         PM--|   PM
| |-3-| |-3-| |-3-|         |-3-| |-3-| |-3-| |-3-|
| E E E E E E E E E Q       E E E E E E E E E E E E
|-------------------------|--------------------------||
|-------------------------|-------------------------o||
|-------------------------|---------------2-2-2-2-2--||
|-3---3---3---------------|-------3---3---0-0-0-0-0--||
|-------------2-2-2-------|-2-2-2-------------------o||
|---2---2---2-2-2-2-------|-2-2-2---2---2------------||


  PM--|    PM--|         PM--|    PM--|
  |-3-|    |-3-|         |-3-|    |-3-|
  E E E Q  E E E Q    Q  E E E Q  E E E
|-------------------|-------------------|
|-------------------|-------------------|
|-------------------|-------------------|
|-------------------|-------------------|
|-2-2-2----2-2-2----|----2-2-2----2-2-2-|
|-2-2-2----2-2-2----|----2-2-2----2-2-2-|


       PM--|      PM--|
       |-3-|      |-3-|    |-3-| |-3-|
  H    E E E Q    E E E Q  E E E E E E
|---------------|-----------------------|
|---------------|-----------------------|
|---------------|-----------------------|
|---------------|-----------------------|
|------2-2-2----|-2-2-2------1-1-1-1-1--|
|------2-2-2----|-2-2-2------1-1-1-1-1--|


  PM--|    PM--|         PM--|    PM--|
  |-3-|    |-3-|         |-3-|    |-3-|
  E E E Q  E E E Q    Q  E E E Q  E E E
|-------------------|-------------------|
|-------------------|-------------------|
|-------------------|-------------------|
|-------------------|-------------------|
|-2-2-2----2-2-2----|----2-2-2----2-2-2-|
|-2-2-2----2-2-2----|----2-2-2----2-2-2-|


       PM--|      PM--|
       |-3-|      |-3-|    |-3-| |-3-|
  H    E E E Q    E E E Q  E E E E E E
|---------------|-----------------------|
|---------------|-----------------------|
|---------------|-----------------------|
|---------------|------------3-3-3-3-3--|
|------2-2-2----|-2-2-2------1-1-1-1-1--|
|------2-2-2----|-2-2-2-----------------|


   Intro
        PM    PM    PM    PM------------------------|
    |-3-| |-3-| |-3-| |-3-|   |-3-| |-3-| |-3-| |-3-|
    E E E E E E E E E E E E   E E E E E E E E E E E E   4x
||--------------------------|---------------------------||
||o-------------------------|--------------------------o||
||--------------------------|---------------------------||
||--------------------------|---------------------------||
||o-3S2-0-3S2-0-3S2-0-3S2-0-|--------------------------o||
||--3S2-0-3S2-0-3S2-0-3S2-0-|-4-3-1-0-4-3-1-0-4-3-1-0---||


   Verse
        PM--|       PM--------|       PM--|       PM
    |-3-| |-3-| |-3-| |-3-|   |-3-| |-3-| |-3-| |-3-|
    E E E E E E E E E E E E   E E E E E E E E E E E E
||--------------------------|--------------------------|
||o-------------------------|--------------------------|
||--------------------------|--------------------------|
||--------------------------|--------------------------|
||o-5S6-0---0---5S6-0---0---|-0---5S6-0---0---5S6-0----|
||--5S6-0---0---5S6-0---0---|-0---5S6-0---0---5S6-0----|


  PM--|       PM--|         PM------|       PM
  |-3-| |-3-| |-3-| |-3-|   |-3-| |-3-| |-3-| |3|
  E E E E E E E E E E E E   E E E E E E E E E E Q  4x
|-------------------------|------------------------||
|-------------------------|-----------------------o||
|-------------------------|------------------------||
|-------------------------|------------------------||
|-0---0---5S6-0---0---5S6-|-0---0---0---5S6-0---8-o||
|-0---0---5S6-0---0---5S6-|-0---0---0---5S6-0---8--||


 Interlude
 6/4
  Gtr I
  |-3-| |-3-|
  Q Q Q Q Q Q H
|---------------------|
|---------------------|
|---------------------|
|---------------------|
|-------------1tr2----|
|-2-4-5-4-2-0---------|
|
| Gtr II
| |-3-| |-3-|
| Q Q Q Q Q Q H
|---------------------|
|---------------------|
|---------------------|
|---------------------|
|-2-4-5-4-2-0-8tr9----|
|---------------------|


 4/4
  S  S  S  S  S   S  S  S  S  S S  S  S  S S  S
|-----------------------------------------------|
|-----------------------------------------------|
|-9h11-11-11-11--11-11-11-11-11-9h11-11-11-9h11-|
|-----------------------------------------------|
|-----------------------------------------------|
|-----------------------------------------------|
|
| Q           H.
|-----------------------------------------------|
|-----------------------------------------------|
|-----------------------------------------------|
|-----------------------------------------------|
|-4---------------------------------------------|
|-4---------------------------------------------|


   S   S  S  S  S  S S  S  S  S S  S Q
|---------------------------------------|
|---------------------------------------|
|-11--11-11-11-11-11-9-11-12-11-9-------|
|---------------------------------12-8--|
|---------------------------------------|
|---------------------------------------|
|
|                    PM-----------|
|  Q.                S  S  S  S S  S Q
|---------------------------------------|
|---------------------------------------|
|---------------------------------------|
|------------------------------------3--|
|------------------------------------1--|
|--------------------2--4--5--4-2--0----|


    S  S  S  S  S  S  S  S  S  S S  S  S  S S  S
||-----------------------------------------------|
||o----------------------------------------------|
||--9h11-11-11-11-11-11-11-11-11-9h11-11-11-9h11-|
||-----------------------------------------------|
||o----------------------------------------------|
||-----------------------------------------------|
|
|   S  S  S  S  S  S  S  S  S  S S  S  S  S S  S
||-----------------------------------------------|
||o----------------------------------------------|
||-----------------------------------------------|
||-----------------------------------------------|
||o----------------------------------------------|
||--2h=4--4--4--4--4--4--4--4--4-2h=4--4--4-2h=4-|


   S  S  S  S  S  S S  S  S  S S  S Q   4x
|---------------------------------------||
|--------------------------------------o||
|-11-11-11-11-11-11-9-11-12-11-9--------||
|--------------------------------12-8---||
|--------------------------------------o||
|---------------------------------------||
|
|  S  S  S  S  S  S S  S  S  S S  S Q   4x
|---------------------------------------||
|--------------------------------------o||
|---------------------------------------||
|-----------------------------------3---||
|-----------------------------------1--o||
|--4--4--4--4--4--4-2--4--5--4-2--0-----||


    S S S S S S S S S S  S  S S S S S
||------9-9---------------------------|
||o-7-7---------9-9-----12-12---------|
||----------6-6-----9-9-----------9-9-|
||----------------------------7-7-----|
||o-----------------------------------|
||------------------------------------|
|
|   S S S S S S S S S S  S  S S S S S
||------------------------------------|
||o-----------------------------------|
||------6-6---------------------------|
||--4-4---------6-6------9--9---------|
||o---------4-4-----7-7-----------7-7-|
||----------------------------7-7-----|


   S  S  S  S  S  S  S  S  S  S  S  S  S  S  S  S
|--------------------------------------------------|
|--------------------------------------------------|
|-------12-12-------11-11-------12-12-------11-11--|
|-10-10-------10-10-------10-10-------10-10--------|
|--------------------------------------------------|
|--------------------------------------------------|
|
|  S  S  S  S  S  S  S  S  S  S  S  S  S  S  S  S
|--------------------------------------------------|
|--------------------------------------------------|
|--------------------------------------------------|
|--------------------------------------------------|
|-------10-10--------9--9-------10-10--------9--9--|
|-10-10-------10-10-------10-10-------10-10--------|


  S S S S S S S S S S  S  S S S S S
|-----9-9---------------------------|
|-7-7---------9-9-----12-12---------|
|---------6-6-----9-9-----------9-9-|
|---------------------------7-7-----|
|-----------------------------------|
|-----------------------------------|
|
| S S S S S S S S S S  S  S S S S S
|-----------------------------------|
|-----------------------------------|
|-----6-6---------------------------|
|-4-4---------6-6------9--9---------|
|---------4-4-----7-7-----------7-7-|
|---------------------------7-7-----|


   S  S  S  S  S  S  S  S  S  S  S  S   Q
|----------------------------------------------||
|---------------------------------------------o||
|-------12-12-------11-11-------12-12-[11]\----||
|-10-10-------10-10-------10-10----------------||
|---------------------------------------------o||
|----------------------------------------------||
|
|  S  S  S  S  S  S  S  S  S  S  S  S   Q
|----------------------------------------------||
|---------------------------------------------o||
|----------------------------------------------||
|----------------------------------------------||
|-------10-10--------9--9-------10-10--[9]\---o||
|-10-10-------10-10-------10-10----------------||


 Solo -Tony
   E    E    E    E    E    E    E    E
|-------------------------------14--------|
|---------------------14-------------13---|
|-18s==11---14---11--------14-------------|
|-----------------------------------------|
|-----------------------------------------|
|-----------------------------------------|
|
|  PM--------------------------------------
|  S S  S S  S S  S S  S S  S S  S S  S S
|-----------------------------------------|
|-----------------------------------------|
|-----------------------------------------|
|-----------------------------------------|
|-----------------------------------------|
|--4-4--4-4--4-4--4-4--4-4--4-4--4-4--4-4-|


                  |----3----|
   +Q.            E    E    E    E    +Q
|--------------------------15p==11---(11)-------|
|-(13)-----------11h==13------------------------|
|-----------------------------------------------|
|-----------------------------------------------|
|-----------------------------------------------|
|-----------------------------------------------|
|
|---------------------------------------------|
|   S  S S S S S  S S    S    S  S S   S  S S S
|-----------------------------------------------|
|-----------------------------------------------|
|-----------------------------------------------|
|--------5-5------4-4------------5-5--------4-4-|
|---3--3-----3-3---------3----3--------3--3-----|
|-----------------------------------------------|


  |-------6-------| |------6-------|  |-------6-------|  |------6-------|
  S S    S S S    S S S    S S S   S  S  S    S S S   S  S S   S  S S   S
|----------7h9h==10p9p7---------------------------------------------------|
|-7h9h==10----------------10p9p7s==9h10h12p==10p9s7h==9h10p9p==7----------|
|----------------------------------------------------------------10p8p==7s|
|-------------------------------------------------------------------------|
|-------------------------------------------------------------------------|
|-------------------------------------------------------------------------|
|
| PM-----------------------------------------------------------------------
| S   S    S   S    S   S    S   S    S    S    S   S    S   S    S   S
|-------------------------------------------------------------------------|
|-------------------------------------------------------------------------|
|-------------------------------------------------------------------------|
|-------------------------------------------------------------------------|
|-------------------------------------------------------------------------|
|-4---4----4---4----4---4----4---4----4----4----4---4----4---4----4---4---|


  |------6------| |------6------| |--3--|
  S S   S S S   S S S   S S S   S S S   S E   Q
|-----------------------------------------------------|
|-----------------------------------------------------|
|-5h7h==8p7p5-----------------------------------------|
|---------------8p6p5s==3h5h6p==5p3-------------------|
|-----------------------------------6p==5p3-----------|
|-----------------------------------------------------|
|
|---------------------------------------------------|
| S   S   S   S   S   S   S   S   S   S   S S S S S S
|-----------------------------------------------------|
|-----------------------------------------------------|
|-----------------------------------------------------|
|---------5---5-----------4---4-----------5-5-----4-4-|
|-3---3-----------3---3-----------3---3-------3-3-----|
|-----------------------------------------------------|


  Gtr III
   W
|-------------------------------------------------|
|-------------------------------------------------|
|-------------------------------------------------|
|-------------------------------------------------|
|-------------------------------------------------|
|-------------------------------------------------|
|
| Gtr I
|  S  S  S  S  S  S  S  S  S  S  S  S  S  S  S  S
|-20-20-20p14-------------------------------------|
|-------------20-20-20p14-------------------------|
|-------------------------20-20-20p14-------------|
|-------------------------------------20-20-20p14-|
|-------------------------------------------------|
|-------------------------------------------------|
|
| Gtr II
|  PM----------------------------------------------
|  S  S  S  S  S  S  S  S  S  S  S  S  S  S  S  S
|-------------------------------------------------|
|-------------------------------------------------|
|-------------------------------------------------|
|-------------------------------------------------|
|-------------------------------------------------|
|--4--4--4--4--4--4--4--4--4--4--4--4--4--4--4--4-|


   |--------6---------|  |--------6---------|  |--------6---------|  |--------6---------|
   S  S    S  S  S    S  S  S    S  S  S    S  S  S    S  S  S    S  S  S    S  S  S    S
|------------------------------------------------------------------------------------------|
|------------------------------------------------------------------------------------------|
|----14h==16h20p16p==14----14h==16h20p16p==14----14h==16h20p16p==14----14h==16h20p16p==14--|
|-20--------------------20--------------------20--------------------20---------------------|
|------------------------------------------------------------------------------------------|
|------------------------------------------------------------------------------------------|
|
|  |--------6---------|  |--------6---------|  |--------6---------|  |--------6---------|
|  S  S    S  S  S    S  S  S    S  S  S    S  S  S    S  S  S    S  S  S    S  S  S    S
|------------------------------------------------------------------------------------------|
|------------------------------------------------------------------------------------------|
|------------------------------------------------------------------------------------------|
|----14h==16h20p16p==14----14h==16h20p16p==14----14h==16h20p16p==14----14h==16h20p16p==14--|
|-20--------------------20--------------------20--------------------20---------------------|
|------------------------------------------------------------------------------------------|
|
|------------------------------------------------------------------------------------|
|  S    S     S    S     S    S     S    S     S    S     S    S     S    S     S    S
|------------------------------------------------------------------------------------------|
|------------------------------------------------------------------------------------------|
|------------------------------------------------------------------------------------------|
|-------------5----5----------------4----4----------------5----5----------------4----4-----|
|--3----3----------------3----3----------------3----3----------------3----3----------------|
|------------------------------------------------------------------------------------------|


   W
|-------------------------------------------------|
|-------------------------------------------------|
|-------------------------------------------------|
|-------------------------------------------------|
|-------------------------------------------------|
|-------------------------------------------------|
|
|  S  S  S  S  S  S  S  S  S  S  S  S  S  S  S  S
|-20-20-20p14-------------------------------------|
|-------------20-20-20p14-------------------------|
|-------------------------20-20-20p14-------------|
|-------------------------------------20-20-20p14-|
|-------------------------------------------------|
|-------------------------------------------------|
|
|  PM----------------------------------------------
|  S  S  S  S  S  S  S  S  S  S  S  S  S  S  S  S
|-------------------------------------------------|
|-------------------------------------------------|
|-------------------------------------------------|
|-------------------------------------------------|
|-------------------------------------------------|
|--4--4--4--4--4--4--4--4--4--4--4--4--4--4--4--4-|


   |--------6---------|  |--------6---------|  |--------6---------|  |--------6---------|
   S  S    S  S  S    S  S  S    S  S  S    S  S  S    S  S  S    S  S  S    S  S  S    S
|------------------------------------------------------------------------------------------|
|----14h==16h20p16p==14----14h==16h20p16p==14----15h==17h21p17p==15----15h==17h21p17p==15--|
|-20--------------------20--------------------21--------------------21---------------------|
|------------------------------------------------------------------------------------------|
|------------------------------------------------------------------------------------------|
|------------------------------------------------------------------------------------------|
|
|  |--------6---------|  |--------6---------|  |--------6---------|  |--------6---------|
|  S  S    S  S  S    S  S  S    S  S  S    S  S  S    S  S  S    S  S  S    S  S  S    S
|------------------------------------------------------------------------------------------|
|------------------------------------------------------------------------------------------|
|----14h==16h20p16p==14----14h==16h20p16p==14----15h==17h21p17p==15----15h==17h21p17p==15--|
|-20--------------------20--------------------21--------------------21---------------------|
|------------------------------------------------------------------------------------------|
|------------------------------------------------------------------------------------------|
|
|------------------------------------------------------------------------------------|
|  S    S     S    S     S    S     S    S     S    S     S    S     S    S     S    S
|------------------------------------------------------------------------------------------|
|------------------------------------------------------------------------------------------|
|------------------------------------------------------------------------------------------|
|-------------5----5----------------4----4----------------5----5----------------4----4-----|
|--3----3----------------3----3----------------3----3----------------3----3----------------|
|------------------------------------------------------------------------------------------|


 6/4
   |--3--|  |--3--|
   Q  Q  Q  Q  Q  Q  H
|----18-19-18-------21tr22----|
|-20----------20-19-----------|
|-----------------------------|
|-----------------------------|
|-----------------------------|
|-----------------------------|
|
|  |--3--|  |--3--|
|  Q  Q  Q  Q  Q  Q  H
|-------------------18tr19----|
|----19-20-19-----------------|
|-21----------21-19-----------|
|-----------------------------|
|-----------------------------|
|-----------------------------|
|
|  PM------------|
|  |--3--|  |--3--|
|  Q  Q  Q  Q  Q  Q  H
|-----------------------------|
|-----------------------------|
|-----------------------------|
|-----------------------------|
|--2--4--5--4--2--0--8tr9-----|
|--2--4--5--4--2--0-----------|


 Chorus
 4/4
  PM--|    PM--|         PM--|    PM--|        PM--|      PM--|
  |-3-|    |-3-|         |-3-|    |-3-|        |-3-|      |-3-|    |-3-| |-3-|
  E E E Q  E E E Q    Q  E E E Q  E E E   H    E E E Q    E E E Q  E E E E E E
|-------------------|-------------------|---------------|----------------------|
|-------------------|-------------------|---------------|----------------------|
|-------------------|-------------------|---------------|----------------------|
|-------------------|-------------------|---------------|----------------------|
|-2-2-2----2-2-2----|----2-2-2----2-2-2-|------2-2-2----|-2-2-2------1-1-1-1-1-|
|-2-2-2----2-2-2----|----2-2-2----2-2-2-|------2-2-2----|-2-2-2------1-1-1-1-1-|
|
| PM--|    PM--|         PM--|    PM--|        PM--|      PM--|
| |-3-|    |-3-|         |-3-|    |-3-|        |-3-|      |-3-|    |-3-| |-3-|
| E E E Q  E E E Q    Q  E E E Q  E E E   H    E E E Q    E E E Q  E E E E E E
|-------------------|-------------------|---------------|----------------------|
|-------------------|-------------------|---------------|----------------------|
|-------------------|-------------------|---------------|----------------------|
|-------------------|-------------------|---------------|----------------------|
|-2-2-2----2-2-2----|----2-2-2----2-2-2-|------2-2-2----|-2-2-2------1-1-1-1-1-|
|-2-2-2----2-2-2----|----2-2-2----2-2-2-|------2-2-2----|-2-2-2------1-1-1-1-1-|


  PM--|   PM  PM--|   PM    PM  PM----|   PM  PM--|
  |-3-| |-3-| |-3-| |-3-|   |-3-| |-3-| |-3-| |-3-|
  E E E E E E E E E E E E   E E E E E E E E E E E E
|-------------------------|-------------------------|
|-------------------------|-------------------------|
|-------------------------|-------------------------|
|-------3---3-------3---3-|---3---------3---3-------|
|-2-2-2-------2-2-2-------|-------2-2-2-------2-2-2-|
|-2-2-2---2---2-2-2---2---|-2---2-2-2-2---2---2-2-2-|
|
| PM--|       PM--|               PM--|       PM--|
| |-3-|       |-3-|               |-3-|       |-3-|
| E E E Q     E E E Q       Q     E E E Q     E E E
|-------------------------|-------------------------|
|-------------------------|-------------------------|
|-------------------------|-------------------------|
|-------------------------|-------------------------|
|-2-2-2-------2-2-2-------|-------2-2-2-------2-2-2-|
|-2-2-2-------2-2-2-------|-------2-2-2-------2-2-2-|


    PM  PM  PM----|   PM    PM--|   PM  PM
  |-3-| |-3-| |-3-| |-3-|   |-3-| |-3-| |-3-| |-3-|
  E E E E E E E E E E E E   E E E E E E E E E E E E
|-------------------------|----------------------------|
|-------------------------|----------------------------|
|-------------------------|----------------------------|
|-3---3---3---------3---3-|-------3---3---3-3-3-3-3----|
|-------------2-2-2-------|-2-2-2---------1-1-1-1-1----|
|---2---2---2-2-2-2---2---|-2-2-2---2---2--------------|
|
|             PM--|         PM--|
|             |-3-|         |-3-|       |-3-| |-3-|
| H           E E E Q       E E E Q     E E E E E E
|-------------------------|----------------------------|
|-------------------------|----------------------------|
|-------------------------|----------------------------|
|-------------------------|---------------3-3-3-3-3----|
|-------------2-2-2-------|-2-2-2---------1-1-1-1-1----|
|-------------2-2-2-------|-2-2-2----------------------|


   Outro
        PM    PM    PM    PM------------------------|
    |-3-| |-3-| |-3-| |-3-|   |-3-| |-3-| |-3-| |-3-|
    E E E E E E E E E E E E   E E E E E E E E E E E E   3x
||--------------------------|---------------------------||
||o-------------------------|--------------------------o||
||--------------------------|---------------------------||
||--------------------------|---------------------------||
||o-3S2-0-3S2-0-3S2-0-3S2-0-|--------------------------o||
||--3S2-0-3S2-0-3S2-0-3S2-0-|-4-3-1-0-4-3-1-0-4-3-1-0---||


      PM    PM    PM    PM------|
  |-3-| |-3-| |-3-| |-3-|   |-3-| |-3-|
  E E E E E E E E E E E E   E E E E E E E E Q
|-------------------------|--------------------*|
|-------------------------|--------------------*|
|-------------------------|--------------------*|
|-------------------------|-------3---3--------*|
|-3S2-0-3S2-0-3S2-0-3S2-0-|-2-2-2-3---3-2------*|
|-3S2-0-3S2-0-3S2-0-3S2-0-|-2-2-2-3---3-2------*|



Duration Legend
---------------
W - whole; H - half; Q - quarter; E - 8th; S - 16th; T - 32nd; X - 64th; a - acciaccatura
+ - note tied to previous; . - note dotted; .. - note double dotted
Uncapitalized letters represent notes that are staccato (1/2 duration)
Irregular groupings are notated above the duration line
Duration letters will always appear directly above the note/fret number it represents the
duration for.  Duration letters with no fret number below them represent rests.  Multi-
bar rests are notated in the form Wxn, where n is the number of bars to rest for.  Low
melody durations appear below the staff

Tablature Legend
----------------
 h   - hammer-on
 p   - pull-off
 b   - bend
 pb  - pre-bend
 r   - bend release (if no number after the r, then release immediately)
 /\  - slide into or out of (from/to "nowhere")
 s   - legato slide
 S   - shift slide
 - natural harmonic
[n]  - artificial harmonic
n(n) - tapped harmonic
 ~   - vibrato
 tr  - trill
 T   - tap
 TP  - trem. picking
 PM  - palm muting
\n/  - tremolo bar dip; n = amount to dip
 \n  - tremolo bar down
 n/  - tremolo bar up
/n\  - tremolo bar inverted dip
 =   - hold bend; also acts as connecting device for hammers/pulls
 <> - volume swell (louder/softer)
 x   - on rhythm slash represents muted slash
 o   - on rhythm slash represents single note slash

Misc Legend
-----------
 |  - bar
||  - double bar
||o - repeat start
o|| - repeat end
*|  - double bar (ending)
 :  - bar (freetime)
 $  - Segno
 &  - Coda
Tempo markers -  = BPM(8/16=s8/s16), where s8 = swing 8ths, s16 = swing 16ths

Добавлено: 12.05.2012
Другие материалы по этой песне:

Страница создана 11.04.2012
http://primanota.ru/byzantine/taking-up-serpents-chords.htm
Привет, Гость.
Предлагаем пройти революционный курс по гитаре.
Подарок от PrimaNota.Ru, забирай!