PrimaNota.ru - самый крупный в мире бесплатный архив песенных текстов, аккордов, табулатур и нот


Byzantine - Salem Ark - таба, видео

Регистрация Запомнить меня
Войти через:  Facebook Google Twitter Vk Yandex Mail.ru

Byzantine - Salem Ark - таба, видео

Печатать
Просмотров: 140
As recorded by Byzantine

Transcribed by Tony Rohrbough
        

Words by Chris Ojeda Music by Byzantine
Arranged by Byzantine

Gtr I (C G C F A D) - 'Untitled'
Gtr II (C G C F A D) - 'Untitled'
Gtr III (C G C F A D) - 'Untitled'
Gtr IV (C G C F A D) - 'Untitled'

   Riff One
    Q=185
   4/4
    Gtr I
    PM---------|   PM----------
    S S E  S S E E S S E  S S
||----------------------------|
||o---------------------------|
||----------------------------|
||----------------------------|
||o--------------6------------|
||--0-0-0--0-0-0---0-0-0--0-0-|


 --------|   PM---------|     PM----------------|
  E  S S E E S S E  S S E   E S S E  S S E  S S E E
|-------------------------|--------------------------||
|-------------------------|-------------------------o||
|-------------------------|--------------------------||
|-------------------------|--------------------------||
|----------5--------------|-6---------------------3-o||
|-0--0-0-0---0-0-0--0-0-0-|---0-0-0--0-0-0--0-0-0----||


    Gtr I
    PM--------|   PM----------------|   PM--------|     PM--------------|
    S S E S S E E S S E S S   E S S E E S S E S S E   E S S E S S E S S E E
||--------------------------|-----------------------|------------------------||
||o-------------------------|-----------------------|-----------------------o||
||--------------------------|-----------------------|------------------------||
||--------------5-----------|---------3-------------|-5-------------------7--||
||o-------------------------|-----------------------|-----------------------o||
||--0-0-0-0-0-0---0-0-0-0-0-|-0-0-0-0---0-0-0-0-0-0-|---0-0-0-0-0-0-0-0-0----||
|
|   Gtr II
|   PM--------|   PM----------------|   PM--------|     PM--------------|
|   S S E S S E E S S E S S   E S S E E S S E S S E   E S S E S S E S S E E
||--------------------------|-----------------------|------------------------||
||o-------------------------|-----------------------|-----------------------o||
||--------------------------|-----------------------|------------------------||
||--------------------------|-----------------------|------------------------||
||o-------------6-----------|---------5-------------|-6-------------------3-o||
||--0-0-0-0-0-0---0-0-0-0-0-|-0-0-0-0---0-0-0-0-0-0-|---0-0-0-0-0-0-0-0-0----||


   Riff 2
    PM--------|   PM---------
    S S E S S E E S S E S S
||--------------------------|
||o-------------------------|
||--------------------------|
||--------------------------|
||o-------------3-----------|
||--4-4-4-4-4-4---4-4-4-4-4-|


 -------|   PM------------|     PM--------------|
  E S S E E S S S S S S S S   E S S E S S E S S E E
|---------------------------|-----------------------|
|---------------------------|-----------------------|
|---------------------------|-----------------------|
|---------------------------|-----------------------|
|---------3-----------------|-3-------------------3-|
|-4-4-4-4---4-4-4-4-4-4-4-4-|---4-4-4-4-4-4-4-4-4---|


  PM--------|   PM----------------|   PM------------|
  S S E S S E E S S E S S   E S S E E S S S S S S S S
|-------------------------|---------------------------|
|-------------------------|---------------------------|
|-------------------------|---------------------------|
|-------------------------|---------------------------|
|-------------1-----------|---------1-----------------|
|-2-2-2-2-2-2---2-2-2-2-2-|-2-2-2-2---2-2-2-2-2-2-2-2-|


    PM--------------|
  E S S E S S E S S E E
|-------------------------||
|------------------------o||
|-------------------------||
|-------------------------||
|-1-------------------1--o||
|---2-2-2-2-2-2-2-2-2-----||


 Riff 1 w/ Variation
  Gtr I
  PM--------|   PM----------------|   PM--------|     PM--------------|
  S S E S S E E S S E S S   E S S E E S S E S S E   E S S E S S E S S E E
|-------------------------|-----------------------|------------------------|
|-------------------------|-----------------------|------------------------|
|-------------------------|-----------------------|------------------------|
|-------------5-----------|---------3-------------|-5-------------------7--|
|-------------------------|-----------------------|------------------------|
|-0-0-0-0-0-0---0-0-0-0-0-|-0-0-0-0---0-0-0-0-0-0-|---0-0-0-0-0-0-0-0-0----|
|
| Gtr II
| PM--------|   PM----------------|   PM--------|     PM--------------|
| S S E S S E E S S E S S   E S S E E S S E S S E   E S S E S S E S S E E
|-------------------------|-----------------------|------------------------|
|-------------------------|-----------------------|------------------------|
|-------------------------|-----------------------|------------------------|
|-------------------------|-----------------------|------------------------|
|-------------6-----------|---------5-------------|-6-------------------3--|
|-0-0-0-0-0-0---0-0-0-0-0-|-0-0-0-0---0-0-0-0-0-0-|---0-0-0-0-0-0-0-0-0----|


  PM--------|   PM----------------|   PM--------|     PM--------------|
  E S S E S S E S S E S S   E S S E E E S S E S S   E S S E S S E S S E E
|-------------------------|-----------------------|------------------------|
|-------------------------|-----------------------|------------------------|
|-------------------------|-----------------------|------------------------|
|-------------5-----------|---------3-------------|-5-------------------7--|
|-------------------------|-----------------------|------------------------|
|-0-0-0-0-0-0---0-0-0-0-0-|-0-0-0-0---0-0-0-0-0-0-|---0-0-0-0-0-0-0-0-0----|
|
| PM--------|   PM----------------|   PM--------|     PM--------------|
| E S S E S S E S S E S S   E S S E E E S S E S S   E S S E S S E S S E E
|-------------------------|-----------------------|------------------------|
|-------------------------|-----------------------|------------------------|
|-------------------------|-----------------------|------------------------|
|-------------------------|-----------------------|------------------------|
|-------------6-----------|---------5-------------|-6-------------------3--|
|-0-0-0-0-0-0---0-0-0-0-0-|-0-0-0-0---0-0-0-0-0-0-|---0-0-0-0-0-0-0-0-0----|


   Riff 3
    PM------------|     PM--------|
    S S S S S S S S E E E E   E E E E +E  E E E  3x
||--------------------------|---------------0----||
||o-------------------------|-----------------0-o||
||--------------------------|-------4-(4)h5------||
||--------------------------|--------------------||
||o-----------------6-6-----|-------------------o||
||--0-0-0-0-0-0-0-0-6-6-0-0-|-0-0-0--------------||


  PM------------|     PM|       PM          ~~
  S S S S S S S S E E E E   E E E  E  E  E  Q
|-------------------------|--------------------|
|-------------------------|-------------13-----|
|-------------------------|----------11----12--|
|-------------------------|-------10-----------|
|-----------------6-6-----|-7-7----------------|
|-0-0-0-0-0-0-0-0-6-6-0-0-|-7-7-0--------------|


    Gtr I
    PM------------|     PM--------|
    S S S S S S S S E E E E   E E E E +E  E E E  3x
||--------------------------|---------------0----||
||o-------------------------|-----------------0-o||
||--------------------------|-------4-(4)h5------||
||--------------------------|--------------------||
||o-----------------6-6-----|-------------------o||
||--0-0-0-0-0-0-0-0-6-6-0-0-|-0-0-0--------------||
|
|   Gtr II
|   PM------------|     PM--------|
|   S S S S S S S S E E E E   E E E E +E  E E E  3x
||--------------------------|---------------0----||
||o-------------------------|-----------------0-o||
||--------------------------|-------4-(4)h5------||
||--------------------------|--------------------||
||o-----------------6-6-----|-------------------o||
||--0-0-0-0-0-0-0-0-6-6-0-0-|-0-0-0--------------||


  PM------------|     PM|       PM          ~~
  S S S S S S S S E E E E   E E E  E  E  E  Q
|-------------------------|--------------------|
|-------------------------|-------------13-----|
|-------------------------|----------11----12--|
|-------------------------|-------10-----------|
|-----------------6-6-----|-7-7----------------|
|-0-0-0-0-0-0-0-0-6-6-0-0-|-7-7-0--------------|
|
| PM------------|     PM|       PM          ~~
| S S S S S S S S E E E E   E E E  E  E  E  Q
|-------------------------|--------------------|
|-------------------------|-------------18-----|
|-------------------------|----------16----17--|
|-------------------------|-------15-----------|
|-----------------6-6-----|-7-7----------------|
|-0-0-0-0-0-0-0-0-6-6-0-0-|-7-7-0--------------|


   Riff 4
                             7/8
    S S E S S E S S E E S S   E S S E S S E E E  3x
||--------------------------|--------------------||
||o-------------------------|-------------------o||
||--------------------------|--------------------||
||--------------------------|--------------------||
||o-------------------------|-------------------o||
||--3-3-1-4-4-1-3-3-1-1-3-3-|-1-4-4-1-3-3-1-0-1--||


 4/4
  S S E S S E S S E E E   E E E E E E E E
|-----------------------|-----------------|
|-----------------------|-----------------|
|-----------------------|-----------------|
|---------------------4-|-3-----8-7-------|
|---------------------2-|-1-2-1-6-5-6-5-8-|
|-3-3-1-4-4-1-3-3-1-1---|---2-1-----6-5-8-|


                             7/8
    S S E S S E S S E E S S   E S S E S S E E E  3x
||--------------------------|--------------------||
||o-------------------------|-------------------o||
||--------------------------|--------------------||
||--------------------------|--------------------||
||o-------------------------|-------------------o||
||--3-3-1-4-4-1-3-3-1-1-3-3-|-1-4-4-1-3-3-1-0-1--||


 4/4
  S S E S S E S S E E E   E E E E E E E E
|-----------------------|-----------------|
|-----------------------|-----------------|
|-----------------------|-----------------|
|---------------------4-|-3-----8-7-------|
|---------------------2-|-1-2-1-6-5-6-5-8-|
|-3-3-1-4-4-1-3-3-1-1---|---2-1-----6-5-8-|


   Riff 3
    Gtr I
    PM------------|     PM--------|
    S S S S S S S S E E E E   E E E E +E  E E E  3x
||--------------------------|---------------0----||
||o-------------------------|-----------------0-o||
||--------------------------|-------4-(4)h5------||
||--------------------------|--------------------||
||o-----------------6-6-----|-------------------o||
||--0-0-0-0-0-0-0-0-6-6-0-0-|-0-0-0--------------||
|
|   Gtr II
|   PM------------|     PM--------|
|   S S S S S S S S E E E E   E E E E +E  E E E  3x
||--------------------------|---------------0----||
||o-------------------------|-----------------0-o||
||--------------------------|-------4-(4)h5------||
||--------------------------|--------------------||
||o-----------------6-6-----|-------------------o||
||--0-0-0-0-0-0-0-0-6-6-0-0-|-0-0-0--------------||


  PM------------|     PM|       PM          ~~
  S S S S S S S S E E E E   E E E  E  E  E  Q
|-------------------------|--------------------|
|-------------------------|-------------13-----|
|-------------------------|----------11----12--|
|-------------------------|-------10-----------|
|-----------------6-6-----|-7-7----------------|
|-0-0-0-0-0-0-0-0-6-6-0-0-|-7-7-0--------------|
|
| PM------------|     PM|       PM          ~~
| S S S S S S S S E E E E   E E E  E  E  E  Q
|-------------------------|-------------20-----|
|-------------------------|----------19----20--|
|-------------------------|-------17-----------|
|-------------------------|--------------------|
|-----------------6-6-----|-7-7----------------|
|-0-0-0-0-0-0-0-0-6-6-0-0-|-7-7-0--------------|


   Riff 4 w/ Variation
                     7/8
    PM----------------------------|
    E E E E E E E E   E E E E E E E  3x
||------------------|----------------||
||o-----------------|---------------o||
||------------------|----------------||
||------------------|----------------||
||o-3-1-4-1-3-1-1-3-|-1-4-1-3-1-0-1-o||
||--3-1-4-1-3-1-1-3-|-1-4-1-3-1-0-1--||


 4/4
  E E E E E E E E   E E E E E E E E
|-----------------|-----------------|
|-----------------|-----------------|
|-----------------|-----------------|
|---------------4-|-3-----8-7-------|
|-3-1-4-1-3-1-1-2-|-1-2-1-6-5-6-5-8-|
|-3-1-4-1-3-1-1---|---2-1-----6-5-8-|


                     7/8
    PM----------------------------|
    E E E E E E E E   E E E E E E E  3x
||------------------|----------------||
||o-----------------|---------------o||
||------------------|----------------||
||------------------|----------------||
||o-3-1-4-1-3-1-1-3-|-1-4-1-3-1-0-1-o||
||--3-1-4-1-3-1-1-3-|-1-4-1-3-1-0-1--||


 4/4
  E E E E E E E E   E E E E E E E E
|-----------------|-----------------|
|-----------------|-----------------|
|-----------------|-----------------|
|---------------4-|-3-----8-7-------|
|-3-1-4-1-3-1-1-2-|-1-2-1-6-5-6-5-8-|
|-3-1-4-1-3-1-1---|---2-1-----6-5-8-|


                                 2/4
    Gtr I
    S S S S S S S S E S S E S S   E S S E E
||------------------------------|------------||
||o-----------------------------|-----------o||
||------------------------------|------------||
||------------------------------|------------||
||o-----------------3-----------|---------3-o||
||--4-4-4-4-4-4-4-4---4-4-4-4-4-|-4-4-4-4----||
|
|   Gtr II
|   S S S S S S S S E E   Q       H
||------------------------------|------------||
||o-----------------------------|-----------o||
||------------------------------|------------||
||------------------------------|------------||
||o-----------------3-----------|-----------o||
||--4-4-4-4-4-4-4-4-------------|------------||


   Riff 2 Variation
   4/4                           2/4
    S S S S S S S S E S S E S S   E S S E E
||------------------------------|------------||
||o-----------------------------|-----------o||
||------------------------------|------------||
||------------------------------|------------||
||o-----------------1-----------|---------1-o||
||--2-2-2-2-2-2-2-2---2-2-2-2-2-|-2-2-2-2----||
|
|   S S S S S S S S E E   Q       H
||------------------------------|------------||
||o-----------------------------|-----------o||
||------------------------------|------------||
||------------------------------|------------||
||o-----------------1-----------|-----------o||
||--2-2-2-2-2-2-2-2-------------|------------||


 Riff 1 w/ Variation
 4/4
  PM--------|   PM----------------|   PM--------|     PM--------------|
  S S E S S E E S S E S S   E S S E E S S E S S E   E S S E S S E S S E E
|-------------------------|-----------------------|-----------------------|
|-------------------------|-----------------------|-----------------------|
|-------------------------|-----------------------|-----------------------|
|-------------5-----------|---------3-------------|-5-------------------7-|
|-------------------------|-----------------------|-----------------------|
|-0-0-0-0-0-0---0-0-0-0-0-|-0-0-0-0---0-0-0-0-0-0-|---0-0-0-0-0-0-0-0-0---|
|
| PM--------|   PM----------------|   PM--------|     PM--------------|
| S S E S S E E S S E S S   E S S E E S S E S S E   E S S E S S E S S E E
|-------------------------|-----------------------|-----------------------|
|-------------------------|-----------------------|-----------------------|
|-------------------------|-----------------------|-----------------------|
|-------------------------|-----------------------|-----------------------|
|-------------6-----------|---------5-------------|-6-------------------3-|
|-0-0-0-0-0-0---0-0-0-0-0-|-0-0-0-0---0-0-0-0-0-0-|---0-0-0-0-0-0-0-0-0---|


  PM--------|   PM----------------|   PM--------|     PM--------------|
  E S S E S S E S S E S S   E S S E E E S S E S S   E S S E S S E S S E E
|-------------------------|-----------------------|------------------------|
|-------------------------|-----------------------|------------------------|
|-------------------------|-----------------------|------------------------|
|-------------5-----------|---------3-------------|-5-------------------7--|
|-------------------------|-----------------------|------------------------|
|-0-0-0-0-0-0---0-0-0-0-0-|-0-0-0-0---0-0-0-0-0-0-|---0-0-0-0-0-0-0-0-0----|
|
| PM--------|   PM----------------|   PM--------|     PM--------------|
| E S S E S S E S S E S S   E S S E E E S S E S S   E S S E S S E S S E E
|-------------------------|-----------------------|------------------------|
|-------------------------|-----------------------|------------------------|
|-------------------------|-----------------------|------------------------|
|-------------------------|-----------------------|------------------------|
|-------------6-----------|---------5-------------|-6-------------------3--|
|-0-0-0-0-0-0---0-0-0-0-0-|-0-0-0-0---0-0-0-0-0-0-|---0-0-0-0-0-0-0-0-0----|


 Riff 5
  E E E E E   E E E   E E  E E  E E  E E
|-------------------|--------------------|
|-------------------|--------------------|
|-------------------|--------------------|
|-1---------------6-|-9-6--8----6--------|
|-----2---------4---|--------9----9--8-6-|
|---1---1-1--/4-----|--------------------|


    PM--|   PM|         PM|   PM|
  E E E E E E E E   E E E E E E E S S
|-----------------|--------------------|
|-----------------|--------------------|
|-----------------|--------------------|
|-----------------|--------------------|
|-5-------5-----3-|-6-5-----5-----3-5--|
|---0-0-0---0-0---|-----0-0---0-0------|


    PM--|   PM|       PM--|   PM--|
  E E E E E E E E   E E E E E E E E   E E E E E  E E E   E E E E E E E E
|-----------------|-----------------|------------------|-----------------|
|-----------------|-----------------|------------------|-----------------|
|-----------------|-----------------|------------------|-----------------|
|-----------------|-----------------|-1--------------6-|-9-6-8---6-------|
|-6-------6-----6-|-9-------9-------|-----2--------4---|-------9---9-8-6-|
|---0-0-0---0-0---|---0-0-0---0-0-0-|---1---1-1-/4-----|-----------------|


  Gtr I
    PM--|   PM|         PM|   PM|         PM--|   PM|        PM---|    PM--|
  E E E E E E E E   E E E E E E E S S   E E E E E E E E    E E  E E  E E E E
|-----------------|-------------------|-----------------|---------------------|
|-----------------|-------------------|-----------------|---------------------|
|-----------------|-------------------|-----------------|---------------------|
|-----------------|-------------------|-----------------|---------------------|
|-5-------5-----3-|-6-5-----5-----3-5-|-6-------6-----6-|--9---10----9--------|
|---0-0-0---0-0---|-----0-0---0-0-----|---0-0-0---0-0---|----0----0----0-0-0--|
|
| Gtr II
|   PM--|   PM|         PM|   PM|         PM--|   PM|        PM---|    PM--|
| E E E E E E E E   E E E E E E E S S   E E E E E E E E    E E  E E  E E E E
|-----------------|-------------------|-----------------|---------------------|
|-----------------|-------------------|-----------------|---------------------|
|-----------------|-------------------|-----------------|---------------------|
|-----------------|-------------------|-----------------|---------------------|
|-8-------8-----6-|-9-8-----8-----6-8-|-9-------9-----9-|-14---15---14--------|
|---0-0-0---0-0---|-----0-0---0-0-----|---0-0-0---0-0---|----0----0----0-0-0--|


   Riff 6
    PM--------------|         PM------------|
    E E  S S E  E E E  E   E  E  S S E  E E E E
||-----------------------|----------------------|
||o----------------------|----------------------|
||-----------------------|----------------------|
||-----------------------|----------------------|
||o--------------------4-|-1--------------------|
||--0-0--0-0-0--0-0-0--4-|-1--0--0-0-0--0-0-0-0-|


    PM-------------------------------------------------|
  E E  S S E  E E E E    S S S S S S S S S S S S S S S S
|---------------------|-----------------------------------||
|---------------------|----------------------------------o||
|---------------------|-----------------------------------||
|---------------------|-----------------------------------||
|---------------------|----------------------------------o||
|-1-1--1-1-1--1-1-1-1-|-/4-4-4-4-4-4-4-4-4-4-4-4-4-4-4-4--||


 Shit. I have to count this?
  Gtr I
  PM------------------------------------------------------------------|
  E E E E E E E E   E E E E E E E E   E E E E E E E E   E E E E E E E E
|-----------------|-----------------|-----------------|-----------------|
|-----------------|-----------------|-----------------|-----------------|
|-----------------|-----------------|-----------------|-----------------|
|-2-2-2-2-2-2-2-2-|-2-2-2-2-2-2-2-2-|-2-2-2-2-2-2-2-2-|-2-2-2-2-2-2-2-2-|
|-----------------|-----------------|-----------------|-----------------|
|-----------------|-----------------|-----------------|-----------------|
|
| Gtr II
| PM------------------------------------------------------------------|
| E E Q   E E E E   E E Q   E E E E   E E E E E E Q     E E E E E E E E
|-----------------|-----------------|-----------------|-----------------|
|-----------------|-----------------|-----------------|-----------------|
|-----------------|-----------------|-----------------|-----------------|
|-----------------|-----------------|-----------------|-----------------|
|-2-------2-----2-|---2-----2---2---|-2-----2---2-----|-2---2---2-----2-|
|-2-------2-----2-|---2-----2---2---|-2-----2---2-----|-2---2---2-----2-|


                                                       5/4
  PM----------------------------------------------------------------------|
  E E E E E E E E   E E E E E E E E   E E E E E E E E   E E E E E E E E E E
|-----------------|-----------------|-----------------|----------------------|
|-----------------|-----------------|-----------------|----------------------|
|-----------------|-----------------|-----------------|----------------------|
|-2-2-2-2-2-2-2-2-|-2-2-2-2-2-2-2-2-|-2-2-2-2-2-2-2-2-|-2-2-2-2-2-2-2-2-2-2--|
|-----------------|-----------------|-----------------|----------------------|
|-----------------|-----------------|-----------------|----------------------|
|
|   PM--------------------------------------------------------------------|
| E E E E E E E E   Q   E E E E E E   E E E E E E E E   Q   E E E E E E E E
|-----------------|-----------------|-----------------|----------------------|
|-----------------|-----------------|-----------------|----------------------|
|-----------------|-----------------|-----------------|----------------------|
|-----------------|-----------------|-----------------|----------------------|
|---2---2---2---2-|-----2---2---2---|---2---2---2---2-|-----2---2---2---2----|
|---2---2---2---2-|-----2---2---2---|---2---2---2---2-|-----2---2---2---2----|


    Gtr IV
    E E E E E E E E E E     4x
||--------------------------||
||o-------------------3----o||
||------2---2-----2---------||
||----1---1-----1---1-------||
||o-0---------0------------o||
||--------------------------||


 Solo - Tony                       Solo - Tony
 4/4
  Gtr I
  S S S S S S S S S S S S S S S S   S S S S S S S S S S S S S S S S
|---------------------------------|---------------------------------|
|-5-----------5h7h9p7p5-----------|-------------5h7h9p7p5-----------|
|---9p7p5h7h9-----------9p7p5h7h9-|-------5h7h9-----------9p7p5h7h9-|
|---------------------------------|---------------------------------|
|---------------------------------|-5h7h9---------------------------|
|---------------------------------|---------------------------------|
|
| Gtr II
| PM-----------------------------------------------------------------
| S S E   E   E   S S E   E   S S   E   S S E   E   S S E   S S E
|---------------------------------|---------------------------------|
|---------------------------------|---------------------------------|
|---------------------------------|---------------------------------|
|---------------------------------|---------------------------------|
|---------------------------------|---------------------------------|
|-2-2-2---2---2---2-2-2---2---2-2-|-2---2-2-2---2---2-2-2---2-2-2---|


  S  S  S S  S  S S  S  S  S S  S  S S  S  S
|-----------------------------------------------|
|-9---------------9h11h13p11p9------------------|
|---13p11p9h11h13--------------13p11p9h11h13----|
|-----------------------------------------------|
|-----------------------------------------------|
|-----------------------------------------------|
|
|--------------------------------------|
| S  S  E    E    S  S  E    S  S  E    E
|-----------------------------------------------|
|-----------------------------------------------|
|-----------------------------------------------|
|-----------------------------------------------|
|-----------------------------------------------|
|-2--2--2----2----2--2--2----2--2--2----2-------|


  S  S  S S  S  S S  S  S  S S  S  S S  S  S
|--------------------------------------------|
|-----------------9h11h13p11p9---------------|
|---------9h11h13--------------13p11p9h11h13-|
|--------------------------------------------|
|-9h11h13------------------------------------|
|--------------------------------------------|
|
| PM------------------------------------------
| S  S  E    S  S E     S  S E     E    S  S
|--------------------------------------------|
|--------------------------------------------|
|--------------------------------------------|
|--------------------------------------------|
|--------------------------------------------|
|-2--2--2----2--2-2-----2--2-2-----2----2--2-|


  S  S S S S  S S S  S S S  S S S S  S   S S  S S S  S S S  S S S  S S S S  S
|--------------------------------------|--------------------------------------|
|-7-------------7h9h11p9p7-------------|---------------7h9h11p9p7-------------|
|---11p9p7h9h11------------11p9p7h9h11-|--------7h9h11------------11p9p7h9h11-|
|--------------------------------------|--------------------------------------|
|--------------------------------------|-7h9h11-------------------------------|
|--------------------------------------|--------------------------------------|
|
|------------------------------------------------------------------------|
| E    S S E    S S  E   S  S E   S  S   E    E   S  S E    S S E    S S E
|--------------------------------------|--------------------------------------|
|--------------------------------------|--------------------------------------|
|--------------------------------------|--------------------------------------|
|--------------------------------------|--------------------------------------|
|--------------------------------------|--------------------------------------|
|-2----2-2-2----2-2--2---2--2-2---2--2-|-2----2---2--2-2----2-2-2----2-2-2----|


   S  S  S  S  S  S  S  S  S  S  S  S  S  S  S  S
|-------------------------------------------------|
|-11----------------11h13h15p13p11----------------|
|----15p13p11h13h15----------------15p13p11h13h15-|
|-------------------------------------------------|
|-------------------------------------------------|
|-------------------------------------------------|
|
|  PM----------------------------------------------
|  E     S  S  E     S  S  E     S  S  E     S  S
|-------------------------------------------------|
|-------------------------------------------------|
|-------------------------------------------------|
|-------------------------------------------------|
|-------------------------------------------------|
|--2-----2--2--2-----2--2--2-----2--2--2-----2--2-|


 5/4
   S  S  S  S  S  S  S  S  S  S  S  S  S  S  S  S  S  S  S  S
|--------------------------------------------------------------|
|-------------------11h13h15p13p11-----------------------------|
|----------11h13h15----------------15p13p11h13h15-11h13h15p13--|
|--------------------------------------------------------------|
|-11h13h15-----------------------------------------------------|
|--------------------------------------------------------------|
|
|-------------------------------------------------------|
|  E     E     S  S  E     S  S  E     S  S  E     S  S  E
|--------------------------------------------------------------|
|--------------------------------------------------------------|
|--------------------------------------------------------------|
|--------------------------------------------------------------|
|--------------------------------------------------------------|
|--2-----2-----2--2--2-----2--2--2-----2--2--2-----2--2--2-----|


 4/4
    H         H            +W                         H          H
|------------16---------|-(16)---------------------|------------19----------|
|-----------------------|--------------------------|------------------------|
|-/14-------------------|--------------------------|------------------------|
|-----------------------|--------------------------|------------------------|
|-----------------------|--------------------------|-15---------------------|
|-----------------------|--------------------------|------------------------|
|
|   PM----------------------------------------------------------------|
|   S S E Q   S S E E E    +E  E +E  E S S E S S E    S S E E E +E  E +E  E
|-----------------------|--------------------------|------------------------|
|-----------------------|--------------------------|------------------------|
|-----------------------|--------------------------|------------------------|
|-----------------------|--------------------------|------------------------|
|-------0---------0---0-|--(0)-0-(0)-------0-----0-|------0---0-(0)-0-(0)---|
|---0-0-0-----0-0-0---0-|--(0)-0-(0)---0-0-0-0-0-0-|--0-0-0---0-(0)-0-(0)---|


   +W
|-(19)---------------------|
|--------------------------|
|--------------------------|
|--------------------------|
|--------------------------|
|--------------------------|
|
|   PM----------------------
|   S  S E S S E S S E E E
|--------------------------|
|--------------------------|
|--------------------------|
|--------------------------|
|--------0-----0-----0---0-|
|---0--0-0-0-0-0-0-0-0---0-|


    H           H             +W
|--------------16----------|-(16)---------------------|
|--------------------------|--------------------------|
|-/14----------------------|--------------------------|
|--------------------------|--------------------------|
|--------------------------|--------------------------|
|--------------------------|--------------------------|
|
|---------------------------------------------------|
|  +E  E +E  E +E  E +E  E    +E  E S S E S S E S S E
|--------------------------|--------------------------|
|--------------------------|--------------------------|
|--------------------------|--------------------------|
|--------------------------|--------------------------|
|--(0)-0-(0)-0-(0)-0-(0)-0-|--(0)-------0-----0-----0-|
|--(0)-0-(0)-0-(0)-0-(0)-0-|--(0)---0-0-0-0-0-0-0-0-0-|


                          5/4
   H          H             W                       +Q
|------------19----------|-18----------------------(18)-----|
|------------------------|----------------------------------|
|------------------------|----------------------------------|
|------------------------|----------------------------------|
|-15---------------------|----------------------------------|
|------------------------|----------------------------------|
|
|    PM---------------------------------------------------|
|  E E +E  E +E  E +E  E   +E  E S S E S S E S S E   S  S E
|------------------------|----------------------------------|
|------------------------|----------------------------------|
|------------------------|----------------------------------|
|------------------------|----------------------------------|
|----0-(0)-0-(0)-0-(0)-0-|-(0)-------0-----0-----0--------0-|
|----0-(0)-0-(0)-0-(0)-0-|-(0)---0-0-0-0-0-0-0-0-0---0--0-0-|


 4/4
  Gtr III
   S  S  S  S  S  S  S  S  S  S  S  S  S  S  S  S    S  S  S  S  S  S  S  S  S  S  S  S  S  S  S  S
|-------------------------------------------------|-------------------13h15h19p15p13--------------|
|------------------13h15h19p15p13----------------|-13h15h19p13h15h19----------------19p15p13h15h19|
|-13h15h19p13h15h19----------------19p15p13h15h19-|-----------------------------------------------|
|-------------------------------------------------|-----------------------------------------------|
|-------------------------------------------------|-----------------------------------------------|
|-------------------------------------------------|-----------------------------------------------|
|
| Gtr I
|  S  S  S  S  S  S  S  S  S  S  S  S  S  S  S  S    S  S  S  S  S  S  S  S  S  S  S  S  S  S  S  S
|-------------------------------------------------|-------------------10h12h16p12p10--------------|
|------------------10h12h16p12p10----------------|-10h12h16p10h12h16----------------16p12p10h12h16|
|-10h12h16p10h12h16----------------16p12p10h12h16-|-----------------------------------------------|
|-------------------------------------------------|-----------------------------------------------|
|-------------------------------------------------|-----------------------------------------------|
|-------------------------------------------------|-----------------------------------------------|
|
| Gtr II
|  PM------------------------------------------------------------------------------------------
|  S  S  E     E     E     S  S  E     E     S  S    E     S  S  E     E     S  S  E     S  S  E
|-------------------------------------------------|-----------------------------------------------|
|-------------------------------------------------|-----------------------------------------------|
|-------------------------------------------------|-----------------------------------------------|
|-------------------------------------------------|-----------------------------------------------|
|-------------------------------------------------|-----------------------------------------------|
|--2--2--2-----2-----2-----2--2--2-----2-----2--2-|--2-----2--2--2-----2-----2--2--2-----2--2--2--|


   S  S  S  S  S  S  S  S  S  S  S  S  S  S  S  S
|----------------------------------------------------|
|-------------------13h15h19p15p13-------------------|
|-13h15h19p13h15h19----------------19p15p13h15h19----|
|----------------------------------------------------|
|----------------------------------------------------|
|----------------------------------------------------|
|
|  S  S  S  S  S  S  S  S  S  S  S  S  S  S  S  S
|----------------------------------------------------|
|-------------------10h12h16p12p10-------------------|
|-10h12h16p10h12h16----------------16p12p10h12h16----|
|----------------------------------------------------|
|----------------------------------------------------|
|----------------------------------------------------|
|
|-------------------------------------------|
|  S  S  E     E     S  S  E     S  S  E     E
|----------------------------------------------------|
|----------------------------------------------------|
|----------------------------------------------------|
|----------------------------------------------------|
|----------------------------------------------------|
|--2--2--2-----2-----2--2--2-----2--2--2-----2-------|


   S  S  S  S  S  S  S  S  S  S  S  S  S  S  S  S
|-------------------13h15h19p15p13----------------|
|-13h15h19p13h15h19----------------19p15p13h15h19-|
|-------------------------------------------------|
|-------------------------------------------------|
|-------------------------------------------------|
|-------------------------------------------------|
|
|  S  S  S  S  S  S  S  S  S  S  S  S  S  S  S  S
|-------------------10h12h16p12p10----------------|
|-10h12h16p10h12h16----------------16p12p10h12h16-|
|-------------------------------------------------|
|-------------------------------------------------|
|-------------------------------------------------|
|-------------------------------------------------|
|
|  PM----------------------------------------------
|  S  S  E     S  S  E     S  S  E     E     S  S
|-------------------------------------------------|
|-------------------------------------------------|
|-------------------------------------------------|
|-------------------------------------------------|
|-------------------------------------------------|
|--2--2--2-----2--2--2-----2--2--2-----2-----2--2-|


   S  S  S  S  S  S  S  S  S  S  S  S  S  S  S  S    S  S  S  S  S  S  S  S  S  S  S  S  S  S  S  S
|-------------------------------------------------|-------------------16h18h22p18p16--------------|
|------------------16h18h22p18p16----------------|-16h18h22p16h18h22----------------22p18p16h18h22|
|-16h18h22p16h18h22----------------22p18p16h18h22-|-----------------------------------------------|
|-------------------------------------------------|-----------------------------------------------|
|-------------------------------------------------|-----------------------------------------------|
|-------------------------------------------------|-----------------------------------------------|
|
|  S  S  S  S  S  S  S  S  S  S  S  S  S  S  S  S    S  S  S  S  S  S  S  S  S  S  S  S  S  S  S  S
|-------------------------------------------------|-------------------13h15h19p15p13--------------|
|------------------13h15h19p15p13----------------|-13h15h19p13h15h19----------------19p15p13h15h19|
|-13h15h19p13h15h19----------------19p15p13h15h19-|-----------------------------------------------|
|-------------------------------------------------|-----------------------------------------------|
|-------------------------------------------------|-----------------------------------------------|
|-------------------------------------------------|-----------------------------------------------|
|
|-------------------------------------------------------------------------------------|
|  E     S  S  E     S  S  E     S  S  E     S  S    E     E     S  S  E     S  S  E     S  S  E
|-------------------------------------------------|-----------------------------------------------|
|-------------------------------------------------|-----------------------------------------------|
|-------------------------------------------------|-----------------------------------------------|
|-------------------------------------------------|-----------------------------------------------|
|-------------------------------------------------|-----------------------------------------------|
|--2-----2--2--2-----2--2--2-----2--2--2-----2--2-|--2-----2-----2--2--2-----2--2--2-----2--2--2--|


   S  S  S  S  S  S  S  S  S  S  S  S  S  S  S  S
|-------------------------------------------------|
|-------------------16h18h22p18p16----------------|
|-16h18h22p16h18h22----------------22p18p16h18h22-|
|-------------------------------------------------|
|-------------------------------------------------|
|-------------------------------------------------|
|
|  S  S  S  S  S  S  S  S  S  S  S  S  S  S  S  S
|-------------------------------------------------|
|-------------------13h15h19p15p13----------------|
|-13h15h19p13h15h19----------------19p15p13h15h19-|
|-------------------------------------------------|
|-------------------------------------------------|
|-------------------------------------------------|
|
|  PM----------------------------------------------
|  E     S  S  E     S  S  E     S  S  E     S  S
|-------------------------------------------------|
|-------------------------------------------------|
|-------------------------------------------------|
|-------------------------------------------------|
|-------------------------------------------------|
|--2-----2--2--2-----2--2--2-----2--2--2-----2--2-|


 5/4
   S  S  S  S  S  S  S  S  S  S  S  S  S  S  S  S Q
|-------------------16h18h22p18p16----------------------|
|-16h18h22p16h18h22----------------22p18p16h18h22-------|
|-------------------------------------------------------|
|-------------------------------------------------------|
|-------------------------------------------------------|
|-------------------------------------------------------|
|
|  S  S  S  S  S  S  S  S  S  S  S  S  S  S  S  S Q
|-------------------13h15h19p15p13----------------------|
|-13h15h19p13h15h19----------------19p15p13h15h19-------|
|-------------------------------------------------------|
|-------------------------------------------------------|
|-------------------------------------------------------|
|-------------------------------------------------------|
|
|-----------------------------------------------------|
|  E     E     S  S  E     S  S  E     S  S  E    S S E
|-------------------------------------------------------|
|-------------------------------------------------------|
|-------------------------------------------------------|
|-------------------------------------------------------|
|-------------------------------------------------------|
|--2-----2-----2--2--2-----2--2--2-----2--2--2----2-2-2-|


 4/4
  PM-------------------------------------------------------------|
  S S E Q  S S E E E   +E  E +E  E S S E S S E   S S E E E +E  E +E  E
|--------------------|-------------------------|-----------------------|
|--------------------|-------------------------|-----------------------|
|--------------------|-------------------------|-----------------------|
|--------------------|-------------------------|-----------------------|
|-----0--------0---0-|-(0)-0-(0)-------0-----0-|-----0---0-(0)-0-(0)---|
|-0-0-0----0-0-0---0-|-(0)-0-(0)---0-0-0-0-0-0-|-0-0-0---0-(0)-0-(0)---|


  PM----------------------------------------------------------------------|
  S S E S S E S S E E E   +E  E +E  E +E  E +E  E   +E  E S S E S S E S S E
|-----------------------|-------------------------|-------------------------|
|-----------------------|-------------------------|-------------------------|
|-----------------------|-------------------------|-------------------------|
|-----------------------|-------------------------|-------------------------|
|-----0-----0-----0---0-|-(0)-0-(0)-0-(0)-0-(0)-0-|-(0)-------0-----0-----0-|
|-0-0-0-0-0-0-0-0-0---0-|-(0)-0-(0)-0-(0)-0-(0)-0-|-(0)---0-0-0-0-0-0-0-0-0-|


                         5/4
    PM------------------------------------------------|
  E E +E  E +E  E +E  E   +E  E S S E S S E S S E S S E
|-----------------------|-------------------------------|
|-----------------------|-------------------------------|
|-----------------------|-------------------------------|
|-----------------------|-------------------------------|
|---0-(0)-0-(0)-0-(0)-0-|-(0)-------0-----0-----0-----0-|
|---0-(0)-0-(0)-0-(0)-0-|-(0)---0-0-0-0-0-0-0-0-0-0-0-0-|


 5/4
  Wx2
|--------|
|--------|
|--------|
|--------|
|--------|
|--------|


   Last Riff
   4/4
    PM----------------------|      PM----------------------
    S S E  E E  S S E  E  S S   E  S S E  E  S S E  S S E
||----------------------------|---------------------------|
||o---------------------------|---------------------------|
||----------------------------|---------------------------|
||----------------------------|---------------------------|
||o---------------------------|---------------------------|
||--0-0-0--0-0--0-0-0--0--0-0-|-0--0-0-0--0--0-0-0--0-0-0-|


 -------------------------|
  S S E  E  S S E  S S E  E
|------------------------------|
|------------------------------|
|------------------------------|
|------------------------------|
|------------------------------|
|-0-0-0--0--0-0-0--0-0-0--0----|


  PM------------------------------------------------------|
  S S E  S S E  S S E  E  S S   E  S S E  S S E  S S E  S S
|-----------------------------|-----------------------------|
|-----------------------------|-----------------------------|
|-----------------------------|-----------------------------|
|-----------------------------|-----------------------------|
|-----------------------------|-----------------------------|
|-0-0-0--0-0-0--0-0-0--0--0-0-|-0--0-0-0--0-0-0--0-0-0--0-0-|


     PM---------------|
  E  E  S S E  S S E   E E   16x
|-----------------------------||
|----------------------------o||
|-----------------------------||
|-----------------------------||
|------------------------5---o||
|-0--0--0-0-0--0-0-0--/6------||



Duration Legend
---------------
W - whole; H - half; Q - quarter; E - 8th; S - 16th; T - 32nd; X - 64th; a - acciaccatura
+ - note tied to previous; . - note dotted; .. - note double dotted
Uncapitalized letters represent notes that are staccato (1/2 duration)
Irregular groupings are notated above the duration line
Duration letters will always appear directly above the note/fret number it represents the
duration for.  Duration letters with no fret number below them represent rests.  Multi-
bar rests are notated in the form Wxn, where n is the number of bars to rest for.  Low
melody durations appear below the staff

Tablature Legend
----------------
 h   - hammer-on
 p   - pull-off
 b   - bend
 pb  - pre-bend
 r   - bend release (if no number after the r, then release immediately)
 /\  - slide into or out of (from/to "nowhere")
 s   - legato slide
 S   - shift slide
 - natural harmonic
[n]  - artificial harmonic
n(n) - tapped harmonic
 ~   - vibrato
 tr  - trill
 T   - tap
 TP  - trem. picking
 PM  - palm muting
\n/  - tremolo bar dip; n = amount to dip
 \n  - tremolo bar down
 n/  - tremolo bar up
/n\  - tremolo bar inverted dip
 =   - hold bend; also acts as connecting device for hammers/pulls
 <> - volume swell (louder/softer)
 x   - on rhythm slash represents muted slash
 o   - on rhythm slash represents single note slash

Misc Legend
-----------
 |  - bar
||  - double bar
||o - repeat start
o|| - repeat end
*|  - double bar (ending)
 :  - bar (freetime)
 $  - Segno
 &  - Coda
Tempo markers -  = BPM(8/16=s8/s16), where s8 = swing 8ths, s16 = swing 16ths

Добавлено: 26.05.2012
Другие материалы по этой песне:

Страница создана 26.05.2012
http://primanota.ru/byzantine/salem-ark-chords.htm
Привет, Гость.
Предлагаем пройти революционный курс по гитаре.
Подарок от PrimaNota.Ru, забирай!