PrimaNota.ru - самый крупный в мире бесплатный архив песенных текстов, аккордов, табулатур и нот


Byzantine - Pity None - таба, видео

Регистрация Запомнить меня
Войти через:  Facebook Google Twitter Vk Yandex Mail.ru

Byzantine - Pity None - таба, видео

Печатать
Просмотров: 140
Уроки эстрадного вокала в Санкт-Петербурге
As recorded by Byzantine
(From the 2005 Album ...AND THEY SHALL TAKE UP SERPENTS)

Transcribed by Tony Rohrbough
        

Words by Chris Ojeda Music by Byzantine
Arranged by Byzantine

Gtr I (C G C F A D) - 'Untitled'
Gtr II (C G C F A D) - 'Untitled'

   Intro
    Q=150
   4/4
    Gtr I
    E   E   E   E   E   E   E   E     E   E   E   E   E   E   E   E
||----------------------------------|---------------------------------|
||o---------------------------------|---------------------------------|
||------------------8---------------|---------------------------------|
||------8---------------6-----------|-----4-------------------9-------|
||o---------6-----------------------|---------2-----------7-------7---|
||--5-----------5-----------1---1---|-1-----------1---6---------------|
|
|   Gtr II
|   PM--------------------------------------------------------------|
|   S S S S S S S S S S S S S S S S   S S S S S S S S S S S S S S S S
||----------------------------------|---------------------------------|
||o---------------------------------|---------------------------------|
||----------------------------------|---------------------------------|
||----------------------------------|---------------------------------|
||o-------------------------2-2-2-2-|-2-2-2-2-2-2-2-2-----------------|
||--1-1-1-1-1-1-1-1-1-1-1-1---------|-----------------2-2-2-2-2-2-2-2-|


  E   E   E   E   E   E   E   E     E   E   E   E   E   E   Q
|---------------------------------|------------------------------||
|---------------------------------|-----------------------------o||
|-----------------8---------------|------------------------------||
|-----8---------------6-----------|-----4-------------------9----||
|---------6-----------------------|---------2-----------7-------o||
|-5-----------5-----------1---1---|-1-----------1---6------------||
|
| PM------------------------------------------------------|
| S S S S S S S S S S S S S S S S   S S S S S S S S S S S S Q
|---------------------------------|------------------------------||
|---------------------------------|-----------------------------o||
|---------------------------------|------------------------------||
|---------------------------------|------------------------------||
|-------------------------2-2-2-2-|-2-2-2-2-2-2-2-2---------2---o||
|-1-1-1-1-1-1-1-1-1-1-1-1---------|-----------------2-2-2-2-2----||


   Verse
      PM----|   PM--------------------------------------|
    E S S S S E S S S S S S S S   S S S S S S S S S S S S E E
||------------------------------|-----------------------------|
||o-----------------------------|-----------------------------|
||------------------------------|-----------------------------|
||--1---------4-----------------|---------------------------2-|
||o-1---------1-----------------|-------------------------4---|
||--1-1-1-1-1-1-1-1-1-1-1-1-1-1-|-1-1-1-1-1-1-1-1-1-1-1-1-----|


    PM----|   PM------------|       PM------------------------|
  E S S S S E S S S S S S S S   S S S S S S S S S S S S S S S S
|-----------------------------|----------------------------------|
|-----------------------------|----------------------------------|
|-----------------------------|----------------------------------|
|-1---------------------------|----------------------------------|
|-----------2-----------------|----------------------------------|
|---1-1-1-1---1-1-1-1-1-1-1-1-|-1h2-2-2-2-2-2-2-2-2-2-2-2-2-2-2--|


    PM----|   PM--------------------------------------|
  E S S S S E S S S S S S S S   S S S S S S S S S S S S E E
|-----------------------------|-----------------------------|
|-----------------------------|-----------------------------|
|-----------------------------|-----------------------------|
|-1---------4-----------------|---------------------------2-|
|-1---------1-----------------|-------------------------4---|
|-1-1-1-1-1-1-1-1-1-1-1-1-1-1-|-1-1-1-1-1-1-1-1-1-1-1-1-----|


    PM----|   PM----|   PM----------------------------------|
  E S S S S E S S S S E S S   S S S S S S S S S S S S S S S S
|---------------------------|----------------------------------||
|---------------------------|---------------------------------o||
|---------------------------|----------------------------------||
|-1-------------------------|----------------------------------||
|-----------2---------2-----|---------------------------------o||
|---1-1-1-1---1-1-1-1-0-0-0-|-0-0-0-0-0-0-0-0-0-0-0-0-0-0-0-0--||


   Intro
    Gtr I
    E  E E E E E E E    E  E E E E E E E
||-------------------|-------------------|
||o------------------|-------------------|
||-----------8-------|-------------------|
||-----8-------6-----|-----4---------9---|
||o------6-----------|-------2-----7---7-|
||--5------5-----1-1-|--1------1-6-------|
|
|   Gtr II
|   H.           Q     +H        H
||-------------------|-------------------|
||o------------------|-------------------|
||---------------4---|-(4)---------------|
||--1------------4---|-(4)-------2-------|
||o-1------------2---|-(2)-------2-------|
||--1----------------|-----------2-------|


  E  E E E E E E E    E  E E E E E  Q
|------------------|------------------------||
|------------------|-----------------------o||
|----------8-------|------------------------||
|----8-------6-----|-----4------------------||
|------6-----------|-------2---------------o||
|-5------5-----1-1-|--1------1-6---[6]------||
|
|                              PM
| H.           Q     +H        E E  Q
|------------------|------------------------||
|------------------|-----------------------o||
|--------------4---|-(4)--------------------||
|-1------------4---|-(4)-------2------------||
|-1------------2---|-(2)-------2-----------o||
|-1----------------|-----------2---[2]b3r===||


 Breakdown
                          PM----|                           PM----|
  S S S S S S S S S S S S S S S S   S S S S S S S S S S S S S S S S
|---------------------------------|---------------------------------|
|---------------------------------|---------------------------------|
|---------------------------------|---------------------------------|
|---------------------------------|---------------------------------|
|---------------------------------|---------------------------------|
|-0h6h7-0h6h7-0h6h7-0h6h7-0-0-0-0-|-0h6h7-0h6h7-0h6h7-0h6h7-1-1-1-1-|
|
|                         PM----|                           PM----|
| H.                      S S S S   H.                      S S S S
|---------------------------------|---------------------------------|
|---------------------------------|---------------------------------|
|---------------------------------|---------------------------------|
|---------------------------------|---------------------------------|
|---------------------------------|---------------------------------|
|-------------------------0-0-0-0-|-------------------------1-1-1-1-|


                          PM----|
  S S S S S S S S S S S S S S S S   S S S S S S S S S S S S  Q
|---------------------------------|----------------------------------|
|---------------------------------|----------------------------------|
|---------------------------------|----------------------------------|
|---------------------------------|----------------------------------|
|---------------------------------|-------------------------10b11r===|
|-0h6h7-0h6h7-0h6h7-0h6h7-0-0-0-0-|-0h6h7-0h6h7-0h6h7-0h6h7----------|
|
|                         PM----|
| H.                      S S S S   H               S S S S  Q
|---------------------------------|----------------------------------|
|---------------------------------|----------------------------------|
|---------------------------------|----------------------------------|
|---------------------------------|----------------------------------|
|---------------------------------|-------------------------10b11r===|
|-------------------------0-0-0-0-|-------------------0-0-0----------|


                          PM----|                           PM----|
  S S S S S S S S S S S S S S S S   S S S S S S S S S S S S S S S S
|---------------------------------|---------------------------------|
|---------------------------------|---------------------------------|
|---------------------------------|---------------------------------|
|---------------------------------|---------------------------------|
|---------------------------------|---------------------------------|
|-0h6h7-0h6h7-0h6h7-0h6h7-0-0-0-0-|-0h6h7-0h6h7-0h6h7-0h6h7-1-1-1-1-|
|
|                         PM----|                           PM----|
| S S S S S S S S S S S S S S S S   S S S S S S S S S S S S S S S S
|---------------------------------|---------------------------------|
|---------------------------------|---------------------------------|
|---------------------------------|---------------------------------|
|---------------------------------|---------------------------------|
|-0h6h7-0h6h7-0h6h7-0h6h7---------|-0h6h7-0h6h7-0h6h7-0h6h7---------|
|-------------------------0-0-0-0-|-------------------------1-1-1-1-|


                          PM----|
  S S S S S S S S S S S S S S S S   S S S S S S S S S S S S  Q
|---------------------------------|----------------------------------|
|---------------------------------|----------------------------------|
|---------------------------------|----------------------------------|
|---------------------------------|----------------------------------|
|---------------------------------|-------------------------10b11r===|
|-0h6h7-0h6h7-0h6h7-0h6h7-0-0-0-0-|-0h6h7-0h6h7-0h6h7-0h6h7----------|
|
|                         PM----|
| S S S S S S S S S S S S S S S S   S S S S S S S S S S S S  Q
|---------------------------------|----------------------------------|
|---------------------------------|----------------------------------|
|---------------------------------|----------------------------------|
|---------------------------------|----------------------------------|
|-0h6h7-0h6h7-0h6h7-0h6h7---------|-0h6h7-0h6h7-0h6h7-0h6h7-10b11r===|
|-------------------------0-0-0-0-|----------------------------------|


    PM-----------------------------------------------------------------|
    S S S S S S S S S S S S S S S S   S S S S S S S S S S S S  S  S  S  S   4x
||----------------------------------|---------------------------------------||
||o---------------------------------|--------------------------------------o||
||----------------------------------|---------------------------------------||
||----------------------------------|---------------------------------------||
||o---------------------------------|-------------------------10-10-10-10--o||
||--6-7-0-6-7-0-6-7-0-6-7-7-0-0-0-0-|-6-7-0-6-7-0-6-7-0-6-7-7---------------||


 Solo - Tony
  Gtr I
                                                             \2.5
   |---3---|  |---3---|  |---3---|  |---3---|
   E  E    E  E  E    E  E  E    E  E  E    E    S  S  S  S  H.
|-11h14p==10h11------10-----------------------|------------------------------|
|---------------14------11h14p==10h11------10-|------------------------------|
|-------------------------------------14------|-11h14p11p10------------------|
|---------------------------------------------|-------------13---------------|
|---------------------------------------------|------------------------------|
|---------------------------------------------|------------------------------|
|
| Gtr II
|       PM---|           PM-----------------------------------------------|
|  E    E     E    E     E    E     E    E       E     E     E    E E E E E
|---------------------------------------------|------------------------------|
|---------------------------------------------|------------------------------|
|---------------------------------------------|------------------------------|
|---------------------------------------------|------------------------------|
|--1---------------1--------------------------|------------------------------|
|--1----1-----1----1-----1----1-----1----1----|--1-----1-----1----1-1-1-1-1--|


   S  S  S  S  S  S  S  S  S  S  S  S  S  S  S  S
|-12h15p11h12----11-------------------------------|
|-------------15----12h15p11h12----11-------------|
|-------------------------------15----12h15p11h12-|
|-------------------------------------------------|
|-------------------------------------------------|
|-------------------------------------------------|
|
|        PM---|            PM----------------------
|  E     E     E     E     E     E     E     E
|-------------------------------------------------|
|-------------------------------------------------|
|-------------------------------------------------|
|-------------------------------------------------|
|--1-----------------1----------------------------|
|--1-----1-----1-----1-----1-----1-----1-----1----|


        /1\         /1\
        ~~~~        ~~~~
   |-----3-----|
   Q    Q      Q    H
|------------------------------|
|-------------16---16----------|
|------------------------------|
|-14---14----------------------|
|------------------------------|
|------------------------------|
|
|---------------------------|
|  E E      E    E  E   E E E
|------------------------------|
|------------------------------|
|------------------------------|
|------------------------------|
|------------------------------|
|--1-1------1----1--1---1-1-1--|


   |------5------|  |------6-------|  |------5------|  |------6-------|
   S  S  S    S  S  S  S  S  S  S  S  S  S  S    S  S  S  S  S  S  S  S
|---------------14-18p14---------------------------14-18p14-------------|
|----14h18---16----------16-18p14-------14h18---16----------16-18p14----|
|-15------------------------------15-15------------------------------15-|
|-----------------------------------------------------------------------|
|-----------------------------------------------------------------------|
|-----------------------------------------------------------------------|
|
|          PM------|                  PM---------------------------------
|  E       E        E        E        E       E        E        E
|-----------------------------------------------------------------------|
|-----------------------------------------------------------------------|
|-----------------------------------------------------------------------|
|-----------------------------------------------------------------------|
|--1-------------------------1------------------------------------------|
|--1-------1--------1--------1--------1-------1--------1--------1-------|


   |------5------|  |------6-------|  |------5------|
   S  S  S    S  S  S  S  S  S  S  S  S  S  S    S  S  S E.
|---------------14-18p14---------------------------14-18-------|
|----14h18---16----------16-18p14-------14h18---16-------------|
|-15------------------------------15-15------------------------|
|--------------------------------------------------------------|
|--------------------------------------------------------------|
|--------------------------------------------------------------|
|
|-----------------------------------------------------------|
|  E       E        E        E        E       E        E    E
|--------------------------------------------------------------|
|--------------------------------------------------------------|
|--------------------------------------------------------------|
|--------------------------------------------------------------|
|--------------------------------------------------------------|
|--1-------1--------1--------1--------1-------1--------1----1--|


   |-------------9:8-------------|  |-------------9:8-------------|
   S  S  S    S  S    S  S    S  S  S  S  S    S  S    S  S    S  S
|-----------------------11h==14h18-----------------------11h==14h18-|
|------------11h14h==18-----------------------11h14h==18------------|
|-11h14h18-------------------------11h14h18-------------------------|
|-------------------------------------------------------------------|
|-------------------------------------------------------------------|
|-------------------------------------------------------------------|
|
|          PM------|                PM----------------------|
|  E       E       E       E        E       E       E       E
|-------------------------------------------------------------------|
|-------------------------------------------------------------------|
|-------------------------------------------------------------------|
|-------------------------------------------------------------------|
|--1-----------------------1----------------------------------------|
|--1-------1-------1-------1--------1-------1-------1-------1-------|


   T     T                 T     T                 T     T                 T     T
   T  T  T  T  T  T  T  T  T  T  T  T  T  T  T  T  T  T  T  T  T  T  T  T  T  T  T  T  T  T  T  T
|-22p18-22p18p14p11h14h18-22p18-22p18p14p11h14h18-21p18-21p18p14p11h14h18-21p18-21p18p14p11h14h18-|
|-------------------------------------------------------------------------------------------------|
|-------------------------------------------------------------------------------------------------|
|-------------------------------------------------------------------------------------------------|
|-------------------------------------------------------------------------------------------------|
|-------------------------------------------------------------------------------------------------|
|
|  PM---------------------------------------------------------------------------------|
|  E           E           E           E           E           E           E           E
|-------------------------------------------------------------------------------------------------|
|-------------------------------------------------------------------------------------------------|
|-------------------------------------------------------------------------------------------------|
|-------------------------------------------------------------------------------------------------|
|-------------------------------------------------------------------------------------------------|
|--0-----------0-----------0-----------0-----------0-----------0-----------0-----------0----------|


   S  S S  S  S S  S  S  S  S  S  S  S  S  S  S
|-15-12-9------------------12-15-18-17-14-11----|
|-----------------------------------------------|
|---------15-12-9-12-15-18-------------------17-|
|-----------------------------------------------|
|-----------------------------------------------|
|-----------------------------------------------|
|
|       PM---|           PM----------------------
|  E    E     E    E     E     E     E     E
|-----------------------------------------------|
|-----------------------------------------------|
|-----------------------------------------------|
|-----------------------------------------------|
|--1---------------1----------------------------|
|--1----1-----1----1-----1-----1-----1-----1----|


              |--3---|  |---3---|
   S  S S  S  E E    E  E  E    E  S  S  S  S
|---------------8---11-14-13---12-11h12p11----|
|---------------------------------------------|
|-14-11-8-11-14----------------------------13-|
|---------------------------------------------|
|---------------------------------------------|
|---------------------------------------------|
|
|---------------------------------------|
|  E    E     E   E     E    E     E     E
|---------------------------------------------|
|---------------------------------------------|
|---------------------------------------------|
|---------------------------------------------|
|---------------------------------------------|
|--1----1-----1---1-----1----1-----1-----1----|


                            ~~~~                               ~~~~
   |---3---|   |---3----|               |---3---|  |---3---|
   E  E    E   E   E    E  +H           E  E    E  E  E    E  +H
|-12-11------(11)--------------------|-11h12p==11-----------------------|
|------------------------------------|----------------------------------|
|---------13------13---12-(12)-------|------------13-12---11-(11)-------|
|------------------------------------|----------------------------------|
|------------------------------------|----------------------------------|
|------------------------------------|----------------------------------|
|
|       PM---|              PM----------------------------------------|
|  E    E      E     E      E  E E E    E    E     E    E      E  E E E
|------------------------------------|----------------------------------|
|------------------------------------|----------------------------------|
|------------------------------------|----------------------------------|
|------------------------------------|----------------------------------|
|--1-----------------1---------------|----------------------------------|
|--1----1------1-----1------1--1-1-1-|--1----1-----1----1------1--1-1-1-|


            |---3---| |--3---|
  S  S S  S E  E    E E  E   E  S  S  S  S
|-9h11p9--------------8h12p==8-12h14p12----|
|------------------------------------------|
|--------11-9-\8---12-------------------14-|
|------------------------------------------|
|------------------------------------------|
|------------------------------------------|
|
|      PM---|         PM--------------------
| E    E    E    E    E    E    E     E
|------------------------------------------|
|------------------------------------------|
|------------------------------------------|
|------------------------------------------|
|-1--------------1-------------------------|
|-1----1----1----1----1----1----1-----1----|


   |---3----|  |---3---|              |---3----|
   E   E    E  E  E    E  S  S  S  S  E   E    E
|-------------11h15p==11-15h17p15----------------|
|------------------------------------------------|
|-12-\11---15---------------------17-15-\14---18-|
|------------------------------------------------|
|------------------------------------------------|
|------------------------------------------------|
|
|-------------------------------------------|
|  E     E     E    E     E     E     E     E
|------------------------------------------------|
|------------------------------------------------|
|------------------------------------------------|
|------------------------------------------------|
|------------------------------------------------|
|--1-----1-----1----1-----1-----1-----1-----1----|


   |---3---|     |--3--|     |--3--|     |--3--|
   E  E    E  E  S  S  S  E  S  S  S  E  S  S  S
|-14h18p==14-15h17p15p14-17h18p17p15-18h20p18p17-|
|------------------------------------------------|
|------------------------------------------------|
|------------------------------------------------|
|------------------------------------------------|
|------------------------------------------------|
|
|       PM---|            PM----------------------
|  E    E     E  E        E  E        E  E
|------------------------------------------------|
|------------------------------------------------|
|------------------------------------------------|
|------------------------------------------------|
|--1-------------1-------------------------------|
|--1----1-----1--1--------1--1--------1--1-------|


               ~~~~~
      |--3--|
   E  S  S  S  H.
|-20h21p20p18-21b23-------------|
|-------------------------------|
|-------------------------------|
|-------------------------------|
|-------------------------------|
|-------------------------------|
|
|---------------------------|
|  E  E        E    E E E S S E
|-------------------------------|
|-------------------------------|
|-------------------------------|
|-------------------------------|
|-------------------------------|
|--0--0--------0----0-0-0-0-0---|


 Breakdown
                          PM----|                           PM----|
  S S S S S S S S S S S S S S S S   S S S S S S S S S S S S S S S S
|---------------------------------|---------------------------------|
|---------------------------------|---------------------------------|
|---------------------------------|---------------------------------|
|---------------------------------|---------------------------------|
|---------------------------------|---------------------------------|
|-0h6h7-0h6h7-0h6h7-0h6h7-0-0-0-0-|-0h6h7-0h6h7-0h6h7-0h6h7-1-1-1-1-|
|
|                         PM----|                           PM----|
| H.                      S S S S   H.                      S S S S
|---------------------------------|---------------------------------|
|---------------------------------|---------------------------------|
|---------------------------------|---------------------------------|
|---------------------------------|---------------------------------|
|---------------------------------|---------------------------------|
|-------------------------0-0-0-0-|-------------------------1-1-1-1-|


                          PM----|
  S S S S S S S S S S S S S S S S   S S S S S S S S S S S S  Q
|---------------------------------|----------------------------------|
|---------------------------------|----------------------------------|
|---------------------------------|----------------------------------|
|---------------------------------|----------------------------------|
|---------------------------------|-------------------------10b11r===|
|-0h6h7-0h6h7-0h6h7-0h6h7-0-0-0-0-|-0h6h7-0h6h7-0h6h7-0h6h7----------|
|
|                         PM----|
| H.                      S S S S   H               S S S S  Q
|---------------------------------|----------------------------------|
|---------------------------------|----------------------------------|
|---------------------------------|----------------------------------|
|---------------------------------|----------------------------------|
|---------------------------------|-------------------------10b11r===|
|-------------------------0-0-0-0-|-------------------0-0-0----------|


                          PM----|                           PM----|
  S S S S S S S S S S S S S S S S   S S S S S S S S S S S S S S S S
|---------------------------------|---------------------------------|
|---------------------------------|---------------------------------|
|---------------------------------|---------------------------------|
|---------------------------------|---------------------------------|
|---------------------------------|---------------------------------|
|-0h6h7-0h6h7-0h6h7-0h6h7-0-0-0-0-|-0h6h7-0h6h7-0h6h7-0h6h7-1-1-1-1-|
|
|                         PM----|                           PM----|
| S S S S S S S S S S S S S S S S   S S S S S S S S S S S S S S S S
|---------------------------------|---------------------------------|
|---------------------------------|---------------------------------|
|---------------------------------|---------------------------------|
|---------------------------------|---------------------------------|
|-0h6h7-0h6h7-0h6h7-0h6h7---------|-0h6h7-0h6h7-0h6h7-0h6h7---------|
|-------------------------0-0-0-0-|-------------------------1-1-1-1-|


                          PM----|
  S S S S S S S S S S S S S S S S   S S S S S S S S S S S S  Q
|---------------------------------|----------------------------------|
|---------------------------------|----------------------------------|
|---------------------------------|----------------------------------|
|---------------------------------|----------------------------------|
|---------------------------------|-------------------------10b11r===|
|-0h6h7-0h6h7-0h6h7-0h6h7-0-0-0-0-|-0h6h7-0h6h7-0h6h7-0h6h7----------|
|
|                         PM----|
| S S S S S S S S S S S S S S S S   S S S S S S S S S S S S  Q
|---------------------------------|----------------------------------|
|---------------------------------|----------------------------------|
|---------------------------------|----------------------------------|
|---------------------------------|----------------------------------|
|-0h6h7-0h6h7-0h6h7-0h6h7---------|-0h6h7-0h6h7-0h6h7-0h6h7-10b11r===|
|-------------------------0-0-0-0-|----------------------------------|


    PM-----------------------------------------------------------------|
    S S S S S S S S S S S S S S S S   S S S S S S S S S S S S  S  S  S  S   4x
||----------------------------------|---------------------------------------||
||o---------------------------------|--------------------------------------o||
||----------------------------------|---------------------------------------||
||----------------------------------|---------------------------------------||
||o---------------------------------|-------------------------10-10-10-10--o||
||--6-7-0-6-7-0-6-7-0-6-7-7-0-0-0-0-|-6-7-0-6-7-0-6-7-0-6-7-7---------------||


  PM------------|
  E E E E E E E E    E  E  E  E  E  E  E  E
|-----------------|-------------------------|
|-----------------|-------------------------|
|-----------------|-------------------------|
|-----------------|-12-12-12-12-12-12-12-12-|
|-----------------|-12-12-12-12-12-12-12-12-|
|-0-0-0-0-0-0-0-0-|--0--0--0--0--0--0--0--0-|


 Chorus
  Gtr I
  H.               Q    H         H
|---------------------|----------------------|
|---------------------|----------------------|
|-7----------------7--|-3---------5----------|
|---------------------|----------------------|
|-5----------------5--|-1---------3----------|
|---------------------|----------------------|
|
| Gtr II
| PM-----|
| S  S S S E E E E Q    E E  E E  E  E  E  E
|---------------------|----------------------|
|---------------------|----------------------|
|---------------------|----------------------|
|----------7---7------|-----10---------12----|
|----------5-5---5----|---8----8----10----10-|
|-0--0-0-0-0-------0--|-8--------10----------|


  H.               Q     H         H
|---------------------|--------------------|
|---------------------|--------------------|
|-7----------------7--|-10--------12-------|
|---------------------|--------------------|
|-5----------------5--|--8--------10-------|
|---------------------|--------------------|
|
| PM-----|
| S  S S S E E E E Q     E E  E E  E E E E
|---------------------|--------------------|
|---------------------|--------------------|
|---------------------|--------------------|
|----------7---7------|------10--------5---|
|----------5-5---5----|----8----8----3---3-|
|-0--0-0-0-0-------0--|--8---------3-------|


   H.                Q     H         H
|-----------------------|-----------------------|
|-----------------------|-----------------------|
|-14----------------14--|-17--------12----------|
|-----------------------|-----------------------|
|-12----------------12--|-15--------10----------|
|-----------------------|-----------------------|
|
|  PM-----|
|  S  S S S E E E E  Q     E E  E E  E  E  E  E
|-----------------------|-----------------------|
|-----------------------|-----------------------|
|-----------------------|-----------------------|
|-----------7---7-------|------10---------12----|
|-----------5-5---5-----|----8----8----10----10-|
|--0--0-0-0-0--------0--|--8--------10----------|


   ~~
   W                     +H         H
|---------------------|--------------------|
|---------------------|--------------------|
|-14------------------|-(14)---------------|
|---------------------|--------------------|
|-12------------------|-(12)---------------|
|---------------------|--------------------|
|
|  PM----|
|  S S S S E E E E Q      E  E  E E E E Q
|---------------------|--------------------|
|---------------------|--------------------|
|---------------------|--------------------|
|----------7---7------|--------10----------|
|----------5-5---5----|------8----8-0-3----|
|--0-0-0-0-0-------0--|---8---------0-3----|


    PM----|
    S S S S E E E E Q    E E  E E  E  E  E  E
||---------------------|----------------------|
||o--------------------|----------------------|
||---------------------|----------------------|
||----------7---7------|-----10---------12----|
||o---------5-5---5----|---8----8----10----10-|
||--0-0-0-0-0-------0--|-8--------10----------|


  PM----|
  S S S S E E E E Q    E E  E E E E E E
|--------------------|--------------------||
|--------------------|-------------------o||
|--------------------|--------------------||
|---------7---7------|-----10-------5-----||
|---------5-5---5----|---8----8---3---3--o||
|-0-0-0-0-0-------0--|-8--------3---------||


 Breakdown 2
  Gtr I
  E   E   E E   E   E E   E     E E   E   E E   E   E E
|-0---0---0-0---0---0-0---0---|-0-0---0---0-0---0---0-0--|
|-6---5---5-6---5---5-6---5---|-5-6---5---5-6---5---5-6--|
|-----------------------------|--------------------------|
|-----------------------------|--------------------------|
|-----------------------------|--------------------------|
|-----------------------------|--------------------------|
|
| Gtr II
| PM------------------------------------------------|
| S S S S E S S S S E S S S S   E S S S S E S S S S E E
|-----------------------------|--------------------------|
|-----------------------------|--------------------------|
|-----------------------------|--------------------------|
|-----------------------------|--------------------------|
|-----------------------------|--------------------------|
|-0-0-0-0-0-0-0-0-0-0-0-0-0-0-|-0-0-0-0-0-0-0-0-0-0-0----|


  E   E   E E   E   E E   E     E E   E   E E   E   E E
|-0---0---0-0---0---0-0---0---|-0-0---0---0-0---0---0-0--|
|-5---5---6-5---5---6-5---5---|-6-5---5---6-5---5---6-5--|
|-----------------------------|--------------------------|
|-----------------------------|--------------------------|
|-----------------------------|--------------------------|
|-----------------------------|--------------------------|
|
| PM------------------------------------------------|
| S S S S E S S S S E S S S S   E S S S S E S S S S E E
|-----------------------------|--------------------------|
|-----------------------------|--------------------------|
|-----------------------------|--------------------------|
|-----------------------------|--------------------------|
|-----------------------------|--------------------------|
|-0-0-0-0-0-0-0-0-0-0-0-0-0-0-|-0-0-0-0-0-0-0-0-0-0-0----|


  E E   E   E E E   E   E   E E   E   E E   E   E   E
|-0-0---0---0-0-0---0---0-|-0-0---0---0-0---0---0---0-|
|-5-6---5---5-6-5---5---6-|-5-5---6---5-5---6---5---5-|
|-------------------------|---------------------------|
|-------------------------|---------------------------|
|-------------------------|---------------------------|
|-------------------------|---------------------------|
|
|   PM----------------------------------------|
| E S S S S E E S S S S E   E S S S S E S S S S Q
|-------------------------|---------------------------|
|-------------------------|---------------------------|
|-------------------------|---------------------------|
|-------------------------|---------------------------|
|-------------------------|---------------------------|
|---0-0-0-0-0---0-0-0-0-0-|---0-0-0-0-0-0-0-0-0-1b2r==|


  E   E   E E   E   E E   E     E E   E   E E   E   Q
|-0---0---0-0---0---0-0---0---|-0-0---0---0-0---0--------|
|-6---5---5-6---5---5-6---5---|-5-6---5---5-6---5---3----|
|-----------------------------|--------------------------|
|-----------------------------|--------------------------|
|-----------------------------|--------------------------|
|-----------------------------|--------------------------|
|
| PM--------------------------------------------------|
| S S S S E S S S S E S S S S   E S S S S E S S S S E E
|-----------------------------|--------------------------|
|-----------------------------|--------------------------|
|-----------------------------|--------------------------|
|-----------------------------|--------------------------|
|-----------------------------|--------------------------|
|-0-0-0-0-0-0-0-0-0-0-0-0-0-0-|-0-0-0-0-0-0-0-0-0-0-0----|


 Chorus
                T             T
  +H            H            +H              H
|--------------------------|----------------------------|
|-(3)-----------3(15)------|-(3(15))--------------------|
|--------------------------|----------------------------|
|--------------------------|----------------------------|
|--------------------------|----------------------------|
|--------------------------|----------------------------|
|
|  PM-----|
|  S  S S S E E E     E Q     E      E  E E  E  E  E  E
|--------------------------|----------------------------|
|--------------------------|----------------------------|
|--------------------------|----------------------------|
|-----------7---7----------|-----------10---------12----|
|-----------5-5-------5----|---------8----8----10----10-|
|--0--0-0-0-0-----------0--|--8-------------10----------|


  W                    W
|--------------------|------------------|
|--------------------|------------------|
|--------------------|------------------|
|--------------------|------------------|
|--------------------|------------------|
|--------------------|------------------|
|
| PM----|
| S S S S E E E E Q    E E  E E E E E E
|--------------------|------------------|
|--------------------|------------------|
|--------------------|------------------|
|---------7---7------|-----10-------5---|
|---------5-5---5----|---8----8---3---3-|
|-0-0-0-0-0-------0--|-8--------3-------|


  PM----|
  S S S S E E E E Q    E E  E E  E  E  E  E
|--------------------|----------------------|
|--------------------|----------------------|
|--------------------|----------------------|
|---------7---7------|-----10---------12----|
|---------5-5---5----|---8----8----10----10-|
|-0-0-0-0-0-------0--|-8--------10----------|


  PM----|
  S S S S E E E E Q    E E  E E E E E E
|--------------------|------------------|
|--------------------|------------------|
|--------------------|------------------|
|---------7---7------|-----10-------5---|
|---------5-5---5----|---8----8---3---3-|
|-0-0-0-0-0-------0--|-8--------3-------|


  Gtr I
  E   E   E E   E   E E   E     E E   E   E E   E   E E
|-0---0---0-0---0---0-0---0---|-0-0---0---0-0---0---0-0--|
|-6---5---5-6---5---5-6---5---|-5-6---5---5-6---5---5-6--|
|-----------------------------|--------------------------|
|-----------------------------|--------------------------|
|-----------------------------|--------------------------|
|-----------------------------|--------------------------|
|
| Gtr II
| PM------------------------------------------------|
| S S S S E S S S S E S S S S   E S S S S E S S S S E E
|-----------------------------|--------------------------|
|-----------------------------|--------------------------|
|-----------------------------|--------------------------|
|-----------------------------|--------------------------|
|-----------------------------|--------------------------|
|-0-0-0-0-0-0-0-0-0-0-0-0-0-0-|-0-0-0-0-0-0-0-0-0-0-0----|


  E   E   E E   E   E E   E     E E   E   E E   E   E E
|-0---0---0-0---0---0-0---0---|-0-0---0---0-0---0---0-0--|
|-5---5---6-5---5---6-5---5---|-6-5---5---6-5---5---6-5--|
|-----------------------------|--------------------------|
|-----------------------------|--------------------------|
|-----------------------------|--------------------------|
|-----------------------------|--------------------------|
|
| PM------------------------------------------------|
| S S S S E S S S S E S S S S   E S S S S E S S S S E E
|-----------------------------|--------------------------|
|-----------------------------|--------------------------|
|-----------------------------|--------------------------|
|-----------------------------|--------------------------|
|-----------------------------|--------------------------|
|-0-0-0-0-0-0-0-0-0-0-0-0-0-0-|-0-0-0-0-0-0-0-0-0-0-0----|


  E E   E   E E E   E   E   E E   E   E E   E   E   E
|-0-0---0---0-0-0---0---0-|-0-0---0---0-0---0---0---0-|
|-5-6---5---5-6-5---5---6-|-5-5---6---5-5---6---5---5-|
|-------------------------|---------------------------|
|-------------------------|---------------------------|
|-------------------------|---------------------------|
|-------------------------|---------------------------|
|
|   PM----------------------------------------|
| E S S S S E E S S S S E   E S S S S E S S S S Q
|-------------------------|---------------------------|
|-------------------------|---------------------------|
|-------------------------|---------------------------|
|-------------------------|---------------------------|
|-------------------------|---------------------------|
|---0-0-0-0-0---0-0-0-0-0-|---0-0-0-0-0-0-0-0-0-1b2r==|


  E   E   E E   E   E E   E     E E   E   E E   E   Q
|-0---0---0-0---0---0-0---0---|-0-0---0---0-0---0--------|
|-6---5---5-6---5---5-6---5---|-5-6---5---5-6---5---3----|
|-----------------------------|--------------------------|
|-----------------------------|--------------------------|
|-----------------------------|--------------------------|
|-----------------------------|--------------------------|
|
| PM
| S S S S E S S S S E S S S S   E S S S S E S S S S E E
|-----------------------------|--------------------------|
|-----------------------------|--------------------------|
|-----------------------------|--------------------------|
|-----------------------------|--------------------------|
|-----------------------------|--------------------------|
|-0-0-0-0-0-0-0-0-0-0-0-0-0-0-|-0-0-0-0-0-0-0-0-0-0-0----|


 Outro
            T              T
  +H        H             +H                H
|-----------------------|------------------------------|
|-(3)-------3(15)-------|-(3(15))----------------------|
|-----------------------|------------------------------|
|-----------------------|------------------------------|
|-----------------------|------------------------------|
|-----------------------|------------------------------|
|
|  PM-----------------|
|  E  E E E E     E E E    E       E  E  E  E  E  E  E
|-----------------------|------------------------------|
|-----------------------|------------------------------|
|-----------------------|------------------------------|
|-----------------------|-12------12-12-12-12-12-12-12-|
|-----------------------|-12------12-12-12-12-12-12-12-|
|--0--0-0-0-0-----0-0-0-|--0-------0--0--0--0--0--0--0-|


    PM---------------------------
    S S S S E S S S S E S S S S
||------------------------------|
||o-----------------------------|
||------------------------------|
||------------------------------|
||o-----------------------------|
||--0-0-0-0-0-0-0-0-0-0-0-0-0-0-|


 -----------------------------------------------------|
  E S S S S E S S S S E S S   S S E S S S S E S S S S E
|---------------------------|----------------------------|
|---------------------------|----------------------------|
|---------------------------|----------------------------|
|---------------------------|----------------------------|
|---------------------------|----------------------------|
|-0-0-0-0-0-0-0-0-0-0-0-0-0-|-0-0-0-0-0-0-0-0-0-0-0-0-0--|


  PM------------------------|
  S S S S E  S S S S E  S S E  4x W          +W
|------------------------------||----------|--------*|
|-----------------------------o||----------|--------*|
|------------------------------||----------|--------*|
|------------------------------||-1--------|-(1)----*|
|-----------------------------o||-1--------|-(1)----*|
|-0-0-0-0-0--0-0-0-0-0--0-0-0--||-1--------|-(1)----*|



Duration Legend
---------------
W - whole; H - half; Q - quarter; E - 8th; S - 16th; T - 32nd; X - 64th; a - acciaccatura
+ - note tied to previous; . - note dotted; .. - note double dotted
Uncapitalized letters represent notes that are staccato (1/2 duration)
Irregular groupings are notated above the duration line
Duration letters will always appear directly above the note/fret number it represents the
duration for.  Duration letters with no fret number below them represent rests.  Multi-
bar rests are notated in the form Wxn, where n is the number of bars to rest for.  Low
melody durations appear below the staff

Tablature Legend
----------------
 h   - hammer-on
 p   - pull-off
 b   - bend
 pb  - pre-bend
 r   - bend release (if no number after the r, then release immediately)
 /\  - slide into or out of (from/to "nowhere")
 s   - legato slide
 S   - shift slide
 - natural harmonic
[n]  - artificial harmonic
n(n) - tapped harmonic
 ~   - vibrato
 tr  - trill
 T   - tap
 TP  - trem. picking
 PM  - palm muting
\n/  - tremolo bar dip; n = amount to dip
 \n  - tremolo bar down
 n/  - tremolo bar up
/n\  - tremolo bar inverted dip
 =   - hold bend; also acts as connecting device for hammers/pulls
 <> - volume swell (louder/softer)
 x   - on rhythm slash represents muted slash
 o   - on rhythm slash represents single note slash

Misc Legend
-----------
 |  - bar
||  - double bar
||o - repeat start
o|| - repeat end
*|  - double bar (ending)
 :  - bar (freetime)
 $  - Segno
 &  - Coda
Tempo markers -  = BPM(8/16=s8/s16), where s8 = swing 8ths, s16 = swing 16ths

Добавлено: 03.04.2012
Другие материалы по этой песне:

Страница создана 03.04.2012
http://primanota.ru/byzantine/pity-none-chords.htm
Привет, Гость.
Предлагаем пройти революционный курс по гитаре.
Подарок от PrimaNota.Ru, забирай!