PrimaNota.ru - самый крупный в мире бесплатный архив песенных текстов, аккордов, табулатур и нот


Byzantine - Justicia - таба, видео

Регистрация Запомнить меня
Войти через:  Facebook Google Twitter Vk Yandex Mail.ru

Byzantine - Justicia - таба, видео

Печатать
Просмотров: 135
As recorded by Byzantine
(From the 2005 Album ... AND THEY SHALL TAKE UP SERPENTS)

Transcribed by Tony Rohrbough
        

Words by Chris Ojeda Music by Byzantine
Arranged by Byzantine

Gtr I (C G C F A D) - 'Both Guitars'
Gtr II (C G C F A D) - 'Lead Gtr'

   Intro
    Q=178
   4/4
    Gtr I
    PM---------------------------------------------
    S S E Q  Q  Q    Q  Q  Q  Q    S S E Q  Q  Q
||-----------------|-------------|----------------|
||o----------------|-------------|----------------|
||-----------------|-------------|----------------|
||-----------------|-------------|----------------|
||o-5-5-5-1--1--1--|-1--1--1--1--|-5-5-5-1--1--1--|
||--------1--1--1--|-1--1--1--1--|-------1--1--1--|


 --------------------------------------------|
  Q  Q  Q  Q    S S E S S E Q  Q    Q  Q  Q  Q
|-------------|-------------------|-------------|
|-------------|-------------------|-------------|
|-------------|-------------------|-------------|
|-------------|-------------------|-------------|
|-1--1--1--1--|-------5-5-5-1--1--|-1--1--1--1--|
|-1--1--1--1--|-2-2-2-------1--1--|-1--1--1--1--|


                                                           Verse
  PM----------------------------------------------|
  S S S S S S S S S S S S S S S S   E E E E E E E E         E E  E E E  E E E
|---------------------------------|------------------||-||--------------------|
|---------------------------------|-----------------o||-||o-------------------|
|---------------------------------|------------------||-||--------------------|
|---------------------------------|------------------||-||--3------4------6---|
|---------------------------------|-6-6---5-5---3-3-o||-||o---5-/6---6-\5---5-|
|-0-0-0-0-0-0-0-0-0-0-0-0-0-0-0-0-|-6-6---5-5---3-3--||-||--------------------|


                    PM----------------------------------------------|
  E E E E E E E E   S S S S S S S S E E E E   S S S S S S S S E E E E   4x
|-----------------|-------------------------|---------------------------||
|-----------------|-------------------------|--------------------------o||
|-----------------|-------------------------|---------------------------||
|-------------3h5-|-------------------------|---------------------------||
|-3h5-----3h5-----|-------------------------|--------------------------o||
|-----3h5---------|-0-0-0-0-0-0-0-0-0-0-0-0-|-0-0-0-0-0-0-0-0-0-0-0-0---||


 Intro w/Melody
  Gtr II
    E    E  E  E  H        +H       H         E    E  E  E  H
|-------------11-10-----|-(10)-----13-----|-------------11-10-----|
|----------14-----------|-----------------|----------14-----------|
|-------11--------------|-----------------|-------11--------------|
|-/13-------------------|-----------------|-/13-------------------|
|-----------------------|-----------------|-----------------------|
|-----------------------|-----------------|-----------------------|
|
| Gtr I
|   PM-------------------------------------------------------------
|   S S  E  Q     Q  Q      Q   Q   Q  Q      S S  E  Q     Q  Q
|-----------------------|-----------------|-----------------------|
|-----------------------|-----------------|-----------------------|
|-----------------------|-----------------|-----------------------|
|-----------------------|-----------------|-----------------------|
|---5-5--5--1-----1--1--|---1---1---1--1--|---5-5--5--1-----1--1--|
|-----------1-----1--1--|---1---1---1--1--|-----------1-----1--1--|


   +H       E  E  +Q       E    E  E    E  H        +H       H
|-(10)-----14-13-(13)--|---------------11-10-----|-(10)-----13-------|
|----------------------|----------14-------------|-------------------|
|----------------------|-------11----------------|-------------------|
|----------------------|-/13---------------------|-------------------|
|----------------------|-------------------------|-------------------|
|----------------------|-------------------------|-------------------|
|
|---------------------------------------------------------------|
|   Q   Q   Q      Q       S S  E  S S  E  Q  Q      Q   Q   Q  Q
|----------------------|-------------------------|-------------------|
|----------------------|-------------------------|-------------------|
|----------------------|-------------------------|-------------------|
|----------------------|-------------------------|-------------------|
|---1---1---1------1---|-----------5-5--5--1--1--|---1---1---1--1----|
|---1---1---1------1---|---2-2--2----------1--1--|---1---1---1--1----|


   S  S  S  S  S  S  S  S  S  S  S  S  S  S  S  S    W
|-------------------------------------10-11-12-13-|---------------------|
|-------------------------11-12-13-14-------------|-13b15---------------|
|-------------11-12-13-14-------------------------|---------------------|
|-12-13-14-15-------------------------------------|---------------------|
|-------------------------------------------------|---------------------|
|-------------------------------------------------|---------------------|
|
|  PM-----------------------------------------------------------------|
|  S  S  S  S  S  S  S  S  S  S  S  S  S  S  S  S    E    E E E E E E E
|-------------------------------------------------|---------------------|
|-------------------------------------------------|---------------------|
|-------------------------------------------------|---------------------|
|-------------------------------------------------|---------------------|
|-------------------------------------------------|--6----6---5-5---3-3-|
|--0--0--0--0--0--0--0--0--0--0--0--0--0--0--0--0-|--6----6---5-5---3-3-|


    E    E  E  E  H        +H       H         E    E  E  E  H
|-------------11-10-----|-(10)-----13-----|-------------11-10-----|
|----------14-----------|-----------------|----------14-----------|
|-------11--------------|-----------------|-------11--------------|
|-/13-------------------|-----------------|-/13-------------------|
|-----------------------|-----------------|-----------------------|
|-----------------------|-----------------|-----------------------|
|
|   PM-------------------------------------------------------------
|   S S  E  Q     Q  Q      Q   Q   Q  Q      S S  E  Q     Q  Q
|-----------------------|-----------------|-----------------------|
|-----------------------|-----------------|-----------------------|
|-----------------------|-----------------|-----------------------|
|-----------------------|-----------------|-----------------------|
|---5-5--5--1-----1--1--|---1---1---1--1--|---5-5--5--1-----1--1--|
|-----------1-----1--1--|---1---1---1--1--|-----------1-----1--1--|


   +H       E  E  +Q       E    E  E    E  H        +H       H
|-(10)-----14-13-(13)--|---------------11-10-----|-(10)-----13-------|
|----------------------|----------14-------------|-------------------|
|----------------------|-------11----------------|-------------------|
|----------------------|-/13---------------------|-------------------|
|----------------------|-------------------------|-------------------|
|----------------------|-------------------------|-------------------|
|
|---------------------------------------------------------------|
|   Q   Q   Q      Q       S S  E  S S  E  Q  Q      Q   Q   Q  Q
|----------------------|-------------------------|-------------------|
|----------------------|-------------------------|-------------------|
|----------------------|-------------------------|-------------------|
|----------------------|-------------------------|-------------------|
|---1---1---1------1---|-----------5-5--5--1--1--|---1---1---1--1----|
|---1---1---1------1---|---2-2--2----------1--1--|---1---1---1--1----|


   S  S  S  S  S  S  S  S  S  S  S  S  S  S  S  S
|-------------------------------------10-11-12-13-|
|-------------------------11-12-13-14-------------|
|-------------11-12-13-14-------------------------|
|-12-13-14-15-------------------------------------|
|-------------------------------------------------|
|-------------------------------------------------|
|
|  PM----------------------------------------------
|  S  S  S  S  S  S  S  S  S  S  S  S  S  S  S  S
|-------------------------------------------------|
|-------------------------------------------------|
|-------------------------------------------------|
|-------------------------------------------------|
|-------------------------------------------------|
|--0--0--0--0--0--0--0--0--0--0--0--0--0--0--0--0-|


   S  S  S  S  S  S  S  S  S  S  S  S  S  S  S  S
|-------------------------------------13-14-15-17-|
|-------------------------14-15-16-17-------------|
|-------------14-15-16-17-------------------------|
|-15-16-17-18-------------------------------------|
|-------------------------------------------------|
|-------------------------------------------------|
|
|-------------------------------------------|
|  E     E     E     E     E     E     E     E
|-------------------------------------------------|
|-------------------------------------------------|
|-------------------------------------------------|
|-------------------------------------------------|
|--6-----6-----------5-----5-----------3-----3----|
|--6-----6-----------5-----5-----------3-----3----|


   Chorus
    Gtr I
    PM-----------------|              PM--------|            PM---|
    Q.   Q.   Q    +E  Q.   E E E E   Q.   Q.   Q    E E E E Q.   E
||---------------|------------------|--------------|-----------------|
||o--------------|------------------|--------------|-----------------|
||---------------|------------------|--------------|-----------------|
||---------------|------------------|--------------|-----------------|
||o-0----0----0--|-(0)-0----0---0---|-1----1----1--|-0---0---0----0--|
||--0----0----0--|-(0)-0------6---3-|-1----1----1--|---6---3-0----0--|


 3/4                          4/4
   PM-------|                  PM----------------------------|
  +Q   Q.   E   +Q   E E E E   S S S S S S S S S S S S S S S S
|-------------|--------------|---------------------------------|
|-------------|--------------|---------------------------------|
|-------------|--------------|---------------------------------|
|-------------|--------------|---------------------------------|
|-(0)--0----0-|-(0)--0---0---|-----------------4-4-4-4-4-4-4-4-|
|-(0)--0----0-|-(0)----6---3-|-0-0-0-0-0-0-0-0-----------------|


  PM----------------------------|
  S S S S S S S S S S S S S S S S     W
|----------------------------------||------|
|---------------------------------o||------|
|----------------------------------||------|
|----------------------------------||------|
|-5-5-5-5-5-5-5-5-4-4-4-4-4-4-4-4-o||------|
|----------------------------------||------|


 Solo - Tony
  Gtr II
         |---3---|           |--3--|           |---3---|
   S  S  S  S    S  E  S  S  S  S  S  E  S  S  S  S    S
|-12------------------12----------------12---------------|
|----12------------------12----------------12------------|
|-------15p14p==12----------15p14p12----------15p14p==12-|
|------------------14----------------14------------------|
|--------------------------------------------------------|
|--------------------------------------------------------|
|
| Gtr I
|  PM--------------|         PM          PM---------------
|  E     S    S     E  E     E        E  E     S    S
|--------------------------------------------------------|
|--------------------------------------------------------|
|--------------------------------------------------------|
|--------------------------------------------------------|
|----------------------3--------------5------------------|
|--2-----2----2-----2--------2-----------2-----2----2----|


            |--3--|
   E  S  S  S  S  S  E  H             S  S  S  S  S  S  S  S  H
|----12----------------------------|-----------------------------------------|
|-------12-------------15b17-------|-15p12-----------------------------------|
|----------15p14p12----------------|-------15p14p12--------------------------|
|-14----------------14-------------|----------------14p12--------------------|
|----------------------------------|----------------------14-13b14r==========|
|----------------------------------|-----------------------------------------|
|
|----|               PM      PM  PM--------------|            PM     PM--|
|  E  E     E        E  E    E E E    E     S  S  E     E     E    E E S S
|----------------------------------|-----------------------------------------|
|----------------------------------|-----------------------------------------|
|----------------------------------|-----------------------------------------|
|----------------------------------|-----------------------------------------|
|-----------3-----------5------3---|--------------------3----------5---------|
|--2--2--------------2-------2---2-|--2-----2--2--2-----------2------2-2-2---|


                ~
                        |----3-----|       |----3-----|  |----3-----|     |----3-----|
   Q        Q   H       E     E    E       E  E       E  E     E    E     E  E       E
|--------------------|-------------------------------------------------------------------|
|--------------------|-------12-----------12---------12-------12---------12---------12---|
|---------------7----|-15b16------15b16------15b16------15b16------15b16----15b16--------|
|--------------------|-------------------------------------------------------------------|
|-10b11r====7--------|-------------------------------------------------------------------|
|--------------------|-------------------------------------------------------------------|
|
|  PM---------|         PM----------------|              PM               PM--------------
|  E    S S E E H       E       S       S  E       E     E       E        E       S    S
|--------------------|-------------------------------------------------------------------|
|--------------------|-------------------------------------------------------------------|
|--------------------|-------------------------------------------------------------------|
|--------------------|-------------------------------------------------------------------|
|---------------0----|-----------------------------3-------------5-----------------------|
|--2----2-2-2-2-0----|--2-------2-------2--2-------------2----------------2-------2----2-|


                                          ~~
   |----3-----|     |----3-----|
   E     E    E     E  E       E  Q       Q
|---------------------------------------------|
|-------12---------12---------12--------------|
|-15b16------15b16----15b16------14b16r==12---|
|---------------------------------------------|
|---------------------------------------------|
|---------------------------------------------|
|
|----------|                PM         PM   PM
|  E       E        E       E     E    E  E E
|---------------------------------------------|
|---------------------------------------------|
|---------------------------------------------|
|---------------------------------------------|
|-------------------3-------------5-------3---|
|--2-------2----------------2----------2----2-|


         |---3---|           |--3--|           |---3---|
   S  S  S  S    S  E  S  S  S  S  S  E  S  S  S  S    S
|-15------------------15----------------15---------------|
|----15------------------15----------------15------------|
|-------15p14p==12----------15p14p12----------15p14p==12-|
|------------------14----------------14------------------|
|--------------------------------------------------------|
|--------------------------------------------------------|
|
|  PM--------------|         PM
|  E     S    S     E  E     E        E  E     S    S
|--------------------------------------------------------|
|--------------------------------------------------------|
|--------------------------------------------------------|
|--------------------------------------------------------|
|----------------------3--------------5------------------|
|--2-----2----2-----2--------2-----------2-----2----2----|


            |--3--|
   E  S  S  S  S  S  E  H
|----15--------------------------|
|-------15-------------14b16r====|
|----------15p14p12----14b16r====|
|-14----------------14-----------|
|--------------------------------|
|--------------------------------|
|
|  PM---------------|
|  E  S  S  E        E  H
|--------------------------------|
|--------------------------------|
|--------------------------------|
|--------------------------------|
|-----------------------0--------|
|--2--2--2--2--------2--0--------|


   T       T       T        T       T       T       T       T       T     T      T     T
   |---------6----------|   |---------6---------|   |--------6---------|  |--------6--------|
   S   S   S   S   S    S   S   S   S   S   S   S   S   S   S   S   S  S  S   S  S  S  S    S
|-21p=20--21p=20--21p==20--21p=19--21p=19--21p=19--21p=17--21p=17--21p17-21p=16-21p16-21p==16-|
|---------------------------------------------------------------------------------------------|
|---------------------------------------------------------------------------------------------|
|---------------------------------------------------------------------------------------------|
|---------------------------------------------------------------------------------------------|
|---------------------------------------------------------------------------------------------|
|
|  PM----------------------|                        PM                    PM-------------------
|  E           S     S      E           E           E           E         E         S    S
|---------------------------------------------------------------------------------------------|
|---------------------------------------------------------------------------------------------|
|---------------------------------------------------------------------------------------------|
|---------------------------------------------------------------------------------------------|
|---------------------------------------5-----------------------7-----------------------------|
|--4-----------4-----4------4-----------------------4---------------------4---------4----4----|


   T      T     T     T     T     T     T     T     T     T     T     T
   |-------6-------|  |------6-------|  |------6-------|  |------6-------|
   S   S  S  S  S  S  S  S  S  S  S  S  S  S  S  S  S  S  S  S  S  S  S  S
|-21p=17-21p17-21p17-21p19-21p19-21p19-21p17-21p17-21p17-21p16-21p16-21p16----|
|-----------------------------------------------------------------------------|
|-----------------------------------------------------------------------------|
|-----------------------------------------------------------------------------|
|-----------------------------------------------------------------------------|
|-----------------------------------------------------------------------------|
|
|-----------|                  PM                PM
|  E         E        E        E        E        E        E        E
|-----------------------------------------------------------------------------|
|-----------------------------------------------------------------------------|
|-----------------------------------------------------------------------------|
|-----------------------------------------------------------------------------|
|---------------------5-----------------7-----------------5-------------------|
|--4---------4-----------------4-----------------4-----------------4----------|


   T     T     T       T     T     T     T     T     T     T     T     T
   |-------6--------|  |------6-------|  |------6-------|  |-------6--------|
   S  S  S  S  S    S  S  S  S  S  S  S  S  S  S  S  S  S  S  S  S  S  S    S
|-21p20-21p20-21p==20-21p19-21p19-21p19-21p17-21p17-21p17-21p16-21p16-21p==16-|
|-----------------------------------------------------------------------------|
|-----------------------------------------------------------------------------|
|-----------------------------------------------------------------------------|
|-----------------------------------------------------------------------------|
|-----------------------------------------------------------------------------|
|
|  PM-----------------|                  PM                PM------------------
|  E        S    S     E        E        E        E        E        S    S
|-----------------------------------------------------------------------------|
|-----------------------------------------------------------------------------|
|-----------------------------------------------------------------------------|
|-----------------------------------------------------------------------------|
|-------------------------------5-----------------7---------------------------|
|--4--------4----4-----4-----------------4-----------------4--------4----4----|


   T     T     T       T     T     T
   |-------6--------|  |------6-------|
   S  S  S  S  S    S  S  S  S  S  S  S  H
|-21p14-21p14-21p==14-21p14-21p14-21p14--------|
|----------------------------------------------|
|----------------------------------------------|
|----------------------------------------------|
|---------------------------------------16\----|
|---------------------------------------16\----|
|
|------------------------------|
|  E        S    S     E        E        H
|----------------------------------------------|
|----------------------------------------------|
|----------------------------------------------|
|----------------------------------------------|
|----------------------------------------2-----|
|--4--------4----4-----4--------4--------2-----|


   S  S  S  S  S  S  S  S  S  S  S  S  S  S  S  S
|-------------------------------------------------|
|-------------------------------------------------|
|-------------------13-14-15-14-13----------------|
|-12-14-15-12-14-15----------------15-14-12-14-15-|
|-------------------------------------------------|
|-------------------------------------------------|
|
|  PM---------|            PM          PM----------
|  E     S  S  E     E     E     E     E     S  S
|-------------------------------------------------|
|-------------------------------------------------|
|-------------------------------------------------|
|-------------------------------------------------|
|--------------------3-----------5----------------|
|--2-----2--2--2-----------2-----------2-----2--2-|


   S  S  S  S  S  S  S  S  S  S  S  S  S  S  S  S    S  S  S  S  S  S  S  S  S  S  S  S  S  S  S  S
|-------------------------------------------------|-----------------------------------------------|
|-------------------------------------------------|-----------------------------------------------|
|-------------------16-17-18-17-16----------------|-------------------19-20-21-20-19--------------|
|15-17-18-15-17-18----------------18-17-15-17-18-|-18-20-21-18-20-21----------------21-20-18-20-21|
|-------------------------------------------------|-----------------------------------------------|
|-------------------------------------------------|-----------------------------------------------|
|
|-------|            PM          PM          PM-----------------|            PM          PM------|
|  E     E     E     E     E     E     E     E       E     S  S  E     E     E     E     E     S  S
|-------------------------------------------------|-----------------------------------------------|
|-------------------------------------------------|-----------------------------------------------|
|-------------------------------------------------|-----------------------------------------------|
|-------------------------------------------------|-----------------------------------------------|
|--------------3-----------5-----------3----------|--------------------3-----------5--------------|
|-2-----2-----------2-----------2-----------2----|--2-----2--2--2-----------2-----------2-----2--2|


   S  S  S  S  S  S  S  S  S  S  S  S  S  S  S  S
|-------------------------------------------------|
|-------------------------------------------------|
|-------------------16-17-18-17-16----------------|
|-15-17-18-15-17-18----------------18-17-15-17-18-|
|-------------------------------------------------|
|-------------------------------------------------|
|
|  PM---------------|
|  E     S  S  E     E     H
|-------------------------------------------------|
|-------------------------------------------------|
|-------------------------------------------------|
|-------------------------------------------------|
|--------------------------0----------------------|
|--2-----2--2--2-----2-----0----------------------|


 Verse
   ~~~~~
   W                       +W
|-----------------------|------------------------|
|-----------------------|------------------------|
|-17b19-----------------|-(17)b19----------------|
|-----------------------|------------------------|
|-----------------------|------------------------|
|-----------------------|------------------------|
|
|  E    E  E E E  E E E     E     E E E E E E E
|-----------------------|------------------------|
|-----------------------|------------------------|
|-----------------------|------------------------|
|--3---------4------6---|-------------------3h5--|
|-------5-/6---6-\5---5-|---3h====5-----3h5------|
|-----------------------|-----------3h5----------|


  Gtr I
  PM----------------------------------------------|
  S S S S S S S S E E E E   S S S S S S S S E E E E     E E  E E E  E E E
|-------------------------|-------------------------||---------------------|
|-------------------------|-------------------------||o--------------------|
|-------------------------|-------------------------||---------------------|
|-------------------------|-------------------------||--3------4------6----|
|-------------------------|-------------------------||o---5-/6---6-\5---5--|
|-0-0-0-0-0-0-0-0-0-0-0-0-|-0-0-0-0-0-0-0-0-0-0-0-0-||---------------------|


                    PM----------------------------------------------|
  E E E E E E E E   S S S S S S S S E E E E   S S S S S S S S E E E E   3x
|-----------------|-------------------------|---------------------------||
|-----------------|-------------------------|--------------------------o||
|-----------------|-------------------------|---------------------------||
|-------------3h5-|-------------------------|---------------------------||
|-3h5-----3h5-----|-------------------------|--------------------------o||
|-----3h5---------|-0-0-0-0-0-0-0-0-0-0-0-0-|-0-0-0-0-0-0-0-0-0-0-0-0---||


   Chorus
    PM-----------------|              PM--------|            PM---|
    Q.   Q.   Q    +E  Q.   E E E E   Q.   Q.   Q    E E E E Q.   E
||---------------|------------------|--------------|-----------------|
||o--------------|------------------|--------------|-----------------|
||---------------|------------------|--------------|-----------------|
||---------------|------------------|--------------|-----------------|
||o-0----0----0--|-(0)-0----0---0---|-1----1----1--|-0---0---0----0--|
||--0----0----0--|-(0)-0------6---3-|-1----1----1--|---6---3-0----0--|


 3/4                          4/4
   PM-------|                  PM----------------------------|
  +Q   Q.   E   +Q   E E E E   S S S S S S S S S S S S S S S S
|-------------|--------------|---------------------------------|
|-------------|--------------|---------------------------------|
|-------------|--------------|---------------------------------|
|-------------|--------------|---------------------------------|
|-(0)--0----0-|-(0)--0---0---|-----------------4-4-4-4-4-4-4-4-|
|-(0)--0----0-|-(0)----6---3-|-0-0-0-0-0-0-0-0-----------------|


  PM----------------------------|
  S S S S S S S S S S S S S S S S
|----------------------------------||
|---------------------------------o||
|----------------------------------||
|----------------------------------||
|-5-5-5-5-5-5-5-5-4-4-4-4-4-4-4-4-o||
|----------------------------------||


  W          +W           +W           +W
|----------|------------|------------|--------|
|----------|------------|------------|--------|
|----------|------------|------------|--------|
|-0--------|-(0)--------|-(0)--------|-(0)----|
|-0--------|-(0)--------|-(0)--------|-(0)----|
|-0--------|-(0)--------|-(0)--------|-(0)----|


  Gtr II
   W           +W            +W            +W           W          +W
|-----------|-------------|-------------|-------------|----------|------------|
|-----------|-------------|-------------|-------------|----------|------------|
|-13--------|-(13)--------|-(13)--------|-(13)--------|----------|------------|
|-12--------|-(12)--------|-(12)--------|-(12)--------|-0--------|-(0)--------|
|-11--------|-(11)--------|-(11)--------|-(11)--------|-0--------|-(0)--------|
|-----------|-------------|-------------|-------------|-0--------|-(0)--------|
|
| Gtr I
|  W           +W            +W            +W           W          +W
|-----------|-------------|-------------|-------------|----------|------------|
|-----------|-------------|-------------|-------------|----------|------------|
|--7--------|--(7)--------|--(7)--------|--(7)--------|----------|------------|
|--6--------|--(6)--------|--(6)--------|--(6)--------|-0--------|-(0)--------|
|--5--------|--(5)--------|--(5)--------|--(5)--------|-0--------|-(0)--------|
|-----------|-------------|-------------|-------------|-0--------|-(0)--------|


                                                                    PM------------|
  +W           +W            W           +W            +W           E E E E E E E E
|------------|------------|-----------|-------------|-------------|--------------------|
|------------|------------|-----------|-------------|-------------|--------------------|
|------------|------------|-19--------|-(19)--------|-(19)--------|--------------------|
|-(0)--------|-(0)--------|-18--------|-(18)--------|-(18)--------|--------------------|
|-(0)--------|-(0)--------|-17--------|-(17)--------|-(17)--------|-0-0-0-0-0-0-0-0----|
|-(0)--------|-(0)--------|-----------|-------------|-------------|-0-0-0-0-0-0-0-0----|
|
|                                                                   PM------------|
| +W           +W            W           +W            +W           E E E E E E E E
|------------|------------|-----------|-------------|-------------|--------------------|
|------------|------------|-----------|-------------|-------------|--------------------|
|------------|------------|-13--------|-(13)--------|-(13)--------|--------------------|
|-(0)--------|-(0)--------|-12--------|-(12)--------|-(12)--------|--------------------|
|-(0)--------|-(0)--------|-11--------|-(11)--------|-(11)--------|-0-0-0-0-0-0-0-0----|
|-(0)--------|-(0)--------|-----------|-------------|-------------|-0-0-0-0-0-0-0-0----|


                                          PM|
     E  E  E E E E  E  E    E E E E  E  E E E  4x
||-----------------------|---------------------||-|
||o----------------------|--------------------o||-|
||--13-13-13-7-7-7-13-13-|-13-7-7-7-13-13------||-|
||-----------------------|---------------------||-|
||o-11-11-11-5-5-5-11-11-|-11-5-5-5-11-11-0-0-o||-|
||-----------------------|----------------0-0--||-|
|
|                                         PM|
|    E  E  E E E E  E  E    E E E E  E  E E E  4x
||-----------------------|---------------------||-|
||o----------------------|--------------------o||-|
||--13-13-13-7-7-7-13-13-|-13-7-7-7-13-13------||-|
||-----------------------|---------------------||-|
||o-11-11-11-5-5-5-11-11-|-11-5-5-5-11-11-0-0-o||-|
||-----------------------|----------------0-0--||-|


     E  E  E  E  E  E  E  E    E  E  E  E  E  E  E  E  4x
||--------------------------|--------------------------||
||o-------------------------|-------------------15-15-o||
||--13-13-13-14-14-14-13-13-|-13-14-14-14-13-13--------||
||--------------------------|-------------------12-12--||
||o-11-11-11-12-12-12-11-11-|-11-12-12-12-11-11-------o||
||--------------------------|--------------------------||
|
|    E  E  E  E  E  E  E  E    E  E  E  E  E  E  E  E  4x
||--------------------------|--------------------------||
||o-------------------------|-------------------------o||
||--13-13-13--7--7--7-13-13-|-13--7--7--7-13-13--7--7--||
||--------------------------|--------------------------||
||o-11-11-11--5--5--5-11-11-|-11--5--5--5-11-11--5--5-o||
||--------------------------|--------------------------||


   E  E   E  E  E   E  E  E
|------------------------------|
|------------------------------|
|-13--------14--------16-------|
|----15-/16----16\-15----15----|
|------------------------------|
|------------------------------|
|
|  E  E   E  E  E   E  E  E
|------------------------------|
|------------------------------|
|-10--------11--------13-------|
|----12-/13----13\-12----12----|
|------------------------------|
|------------------------------|


   Outro
    Gtr I
    PM----------------------------------------------|
    S S E S S E S S E S S E   S S E S S E S S E S S E
||--------------------------|--------------------------|
||o-------------------------|--------------------------|
||--------------------------|--------------------------|
||--------------------------|--------------------------|
||o-------------4-4-4-4-4-4-|-5-5-5-5-5-5-4-4-4-4-4-4--|
||--0-0-0-0-0-0-------------|--------------------------|


  PM--------------------------------------------------------------|
  S S S S S S S S S S S S S S S S   S S S S S S S S S S S S S S S S
|---------------------------------|---------------------------------|
|---------------------------------|---------------------------------|
|---------------------------------|---------------------------------|
|---------------------------------|-----------------6-6-6-6---------|
|---------4-4-4-4-5-5-5-5-4-4-4-4-|---------4-4-4-4---------5-5-5-5-|
|-6-6-6-6-------------------------|-6-6-6-6-------------------------|


  PM----------------------------------------------|
  S S E S S E S S E S S E   S S E S S E S S E S S E
|-------------------------|-------------------------|
|-------------------------|-------------------------|
|-------------------------|-------------------------|
|-------------------------|-------------------------|
|-------------4-4-4-4-4-4-|-5-5-5-5-5-5-4-4-4-4-4-4-|
|-0-0-0-0-0-0-------------|-------------------------|


  PM----------------------------------------------|
  S S S S S S S S S S S S S S S S   S S S S S S S S H
|---------------------------------|------------------------||
|---------------------------------|-----------------------o||
|---------------------------------|------------------------||
|---------------------------------|------------------------||
|---------4-4-4-4-5-5-5-5-4-4-4-4-|---------4-4-4-4-6\----o||
|-6-6-6-6-------------------------|-6-6-6-6---------6\-----||


    Gtr II
      E  E  E  E  E  E  E  E    E  E  E  E  E  E  E  E
||---------------------------|-------------------------|
||o--------------------------|-------------------------|
||--/10-10-10-10-10-10-10-10-|-10-10-10-10-10-10-10-10-|
||---------------------------|-------------------------|
||o--/8--8--8--8--8--8--8--8-|--8--8--8--8--8--8--8--8-|
||---------------------------|-------------------------|
|
|   Gtr I
|     PM------------------------------------------------
|     E  E  E  E  E  E  E  E    E  E  E  E  E  E  E  E
||---------------------------|-------------------------|
||o--------------------------|-------------------------|
||---------------------------|-------------------------|
||---------------------------|-------------------------|
||o---------------4--4--4--4-|--5--5--5--5--4--4--4--4-|
||----0--0--0--0-------------|-------------------------|


  PM------------------------------|
  E E E E E E E E   E E E E E E E E
|-----------------|------------------|
|-----------------|---------9-9------|
|-----6-6-7-7-6-6-|-----6-6-----7-7--|
|-6-6-------------|-6-6--------------|
|-----------------|------------------|
|-----------------|------------------|
|
|---------------------------------|
| E E E E E E E E   E E E E E E E E
|-----------------|------------------|
|-----------------|------------------|
|-----------------|------------------|
|-----------------|---------6-6------|
|-----4-4-5-5-4-4-|-----4-4-----5-5--|
|-6-6-------------|-6-6--------------|


    E  E  E  E  E  E  E  E    E  E  E  E  E  E  E  E
|--------------------------|-------------------------|
|--------------------------|-------------------------|
|-/10-10-10-10-10-10-10-10-|-10-10-10-10-10-10-10-10-|
|--------------------------|-------------------------|
|--/8--8--8--8--8--8--8--8-|--8--8--8--8--8--8--8--8-|
|--------------------------|-------------------------|
|
|   PM------------------------------------------------
|   E  E  E  E  E  E  E  E    E  E  E  E  E  E  E  E
|--------------------------|-------------------------|
|--------------------------|-------------------------|
|--------------------------|-------------------------|
|--------------------------|-------------------------|
|---------------4--4--4--4-|--5--5--5--5--4--4--4--4-|
|---0--0--0--0-------------|-------------------------|


  PM----------------------|
  E E E E E E E E   E E E E H
|-----------------|----------------||
|-----------------|---------------o||
|-----6-6-7-7-6-6-|-----6-6--------||
|-6-6-------------|-6-6------------||
|-----------------|---------6\----o||
|-----------------|---------6\-----||
|
|-------------------------|
| E E E E E E E E   E E E E H
|-----------------|----------------||
|-----------------|---------------o||
|-----------------|----------------||
|-----------------|----------------||
|-----4-4-5-5-4-4-|-----4-4-6\----o||
|-6-6-------------|-6-6-----6\-----||


                                      PM------------------------------|
  Q   E E Q   E E   Q   E E Q   E E   E E E E E E E E   E E E E E E E E
|-----------------|-----------------|-----------------|-----------------|
|-----------------|-----------------|-----------------|-----------------|
|-----------------|-----------------|-----------------|-----------------|
|-------------6-6-|-----7-7-----6-6-|-----------------|---------6-6-----|
|-----0-0-----4-4-|-----5-5-----4-4-|-----4-4-5-5-4-4-|-----4-4-----5-5-|
|-----0-0---------|-----------------|-6-6-------------|-6-6-------------|
|
| PM------------------------------------------------------------------|
| E E E E E E E E   E E E E E E E E   E E E E E E E E   E E E E E E E E
|-----------------|-----------------|-----------------|-----------------|
|-----------------|-----------------|-----------------|-----------------|
|-----------------|-----------------|-----------------|-----------------|
|-----------------|-----------------|-----------------|---------6-6-----|
|---------4-4-4-4-|-5-5-5-5-4-4-4-4-|-----4-4-5-5-4-4-|-----4-4-----5-5-|
|-0-0-0-0---------|-----------------|-6-6-------------|-6-6-------------|


  Q  E E Q  E E   Q  E E Q  E E
|---------------|---------------*|
|---------------|---------------*|
|---------------|---------------*|
|-----------6-6-|----7-7----6-6-*|
|----0-0----4-4-|----5-5----4-4-*|
|----0-0--------|---------------*|



Duration Legend
---------------
W - whole; H - half; Q - quarter; E - 8th; S - 16th; T - 32nd; X - 64th; a - acciaccatura
+ - note tied to previous; . - note dotted; .. - note double dotted
Uncapitalized letters represent notes that are staccato (1/2 duration)
Irregular groupings are notated above the duration line
Duration letters will always appear directly above the note/fret number it represents the
duration for.  Duration letters with no fret number below them represent rests.  Multi-
bar rests are notated in the form Wxn, where n is the number of bars to rest for.  Low
melody durations appear below the staff

Tablature Legend
----------------
 h   - hammer-on
 p   - pull-off
 b   - bend
 pb  - pre-bend
 r   - bend release (if no number after the r, then release immediately)
 /\  - slide into or out of (from/to "nowhere")
 s   - legato slide
 S   - shift slide
 - natural harmonic
[n]  - artificial harmonic
n(n) - tapped harmonic
 ~   - vibrato
 tr  - trill
 T   - tap
 TP  - trem. picking
 PM  - palm muting
\n/  - tremolo bar dip; n = amount to dip
 \n  - tremolo bar down
 n/  - tremolo bar up
/n\  - tremolo bar inverted dip
 =   - hold bend; also acts as connecting device for hammers/pulls
 <> - volume swell (louder/softer)
 x   - on rhythm slash represents muted slash
 o   - on rhythm slash represents single note slash

Misc Legend
-----------
 |  - bar
||  - double bar
||o - repeat start
o|| - repeat end
*|  - double bar (ending)
 :  - bar (freetime)
 $  - Segno
 &  - Coda
Tempo markers -  = BPM(8/16=s8/s16), where s8 = swing 8ths, s16 = swing 16ths

Добавлено: 12.04.2012
Другие материалы по этой песне:

Страница создана 12.03.2012
http://primanota.ru/byzantine/justicia-chords.htm
Привет, Гость.
Предлагаем пройти революционный курс по гитаре.
Подарок от PrimaNota.Ru, забирай!