PrimaNota.ru - самый крупный в мире бесплатный архив песенных текстов, аккордов, табулатур и нот


Byzantine - Jeremiad - таба, видео

Регистрация Запомнить меня
Войти через:  Facebook Google Twitter Vk Yandex Mail.ru

Byzantine - Jeremiad - таба, видео

Печатать
Просмотров: 142
As recorded by Byzantine
(From the 2005 Album ... AND THEY SHALL TAKE UP SERPENTS)

Transcribed by Tony Rohrbough
        

Words by Chris Ojeda Music by Byzantine
Arranged by Byzantine

Gtr I (C G C F A D) - 'Untitled'
Gtr II (C G C F A D) - 'Untitled'
Gtr III (C G C F A D) - 'Clean'

 Intro
  Q=162
 4/4
  Gtr I
  E S S Q  H      E E E E E E E E   E E E E E E E E   E E E E E S S E E
|---------------|-----------------|-----------------|--------------------|
|---------------|-----------------|-----------------|--------------------|
|---------------|-----------------|-----------------|--------------------|
|---x-x-x-------|-x---x-x---x---x-|-x---x---x---x-x-|---x---x---x-x-x----|
|---x-x-x-------|-x---x-x---x---x-|-x---x---x---x-x-|---x---x---x-x-x----|
|---x-x-x-------|-x---x-x---x---x-|-x---x---x---x-x-|---x---x---x-x-x----|


  E E E E E E E E   E E E E E E E E   E S S E E E E E E
|-----------------|-----------------|--------------------|
|-----------------|-----------------|--------------------|
|-----------------|-----------------|--------------------|
|-x-x---x---x-x---|-x---x-x---x---x-|---x-x-x---x---x----|
|-x-x---x---x-x---|-x---x-x---x---x-|---x-x-x---x---x----|
|-x-x---x---x-x---|-x---x-x---x---x-|---x-x-x---x---x----|


  Gtr II
  E E Q  H                W                    E E Q  Q.           E
|----------------------|---------------------|-----------------------|
|----------------------|---------------------|-----------------------|
|----------------------|---------------------|-----------------------|
|-3-1-3----------------|---------------------|-3-1-3---------------3-|
|-3-1-3----------------|---------------------|-3-1-3---------------3-|
|-3-1-3----------------|---------------------|-3-1-3---------------3-|
|
| Gtr I
|        PM--------|         PM|                      PM---------|
| E E Q  S S S S S S E   +E  S S E E  Q   Q    E E Q  S  S S S S S E
|----------------------|---------------------|-----------------------|
|----------------------|---------------------|-----------------------|
|----------------------|---------------------|-----------------------|
|-3-1-3--------------3-|-(3)-----3-1-/5--\1--|-3-1-3---------------3-|
|-3-1-3--------------3-|-(3)-----3-1-/5--\1--|-3-1-3---------------3-|
|-3-1-3--0-0-0-0-0-0-3-|-(3)-1-1-3-1-/5--\1--|-3-1-3--0--0-0-0-0-0-3-|


                Verse
  Gtr I
                        PM--------|         PM|
  H.      Q      E E Q  S S S S S S E   +E  S S E E  Q   Q   4x
|------------||-----------------------|----------------------||
|------------||o----------------------|---------------------o||
|------------||-----------------------|----------------------||
|---------1--||--3p1-3--------------3-|-(3)---------/5--\1---||
|---------1--||o-3p1-3--------------3-|-(3)-----3-1-/5--\1--o||
|---------1--||--3p1-3--0-0-0-0-0-0-3-|-(3)-1-1-3-1-/5--\1---||


        PM----|           PM|                  PM----|           PM|
  E E E E E E E E   +E  E E E   Q   Q    E E E E E E E E   +E  E E E   Q  Q
|-----------------|--------------------|-----------------|-------------------|
|-----------------|--------------------|-----------------|-------------------|
|-----------------|--------------------|-----------------|----------------0--|
|-8p6-8---------8-|-(8)p6-----/10--\6--|-8p6-8---------8-|-(8)p6-----/10-----|
|-8p6-8---------8-|-(8)p6-8-6-/10--\6--|-8p6-8---------8-|-(8)p6-8-6-/10-----|
|-8p6-8-0-0-0-0-8-|-(8)p6-8-6-/10--\6--|-8p6-8-0-0-0-0-8-|-(8)p6-8-6-/10-----|


         PM--------|         PM----|
  E E Q  S S S S S S E   +E  S S E E  Q   Q
|----------------------|---------------------|
|----------------------|---------------------|
|----------------------|---------------------|
|-3p1-3--------------3-|-(3)---------/5--\1--|
|-3p1-3--------------3-|-(3)-----3-1-/5--\1--|
|-3p1-3--0-0-0-0-0-0-3-|-(3)-1-1-3-1-/5--\1--|


         PM--------|         PM----|
  E E Q  S S S S S S E   +E  S S E E  Q  Q
|----------------------|---------------------|
|----------------------|---------------------|
|----------------------|---------------------|
|-3p1-3--------------3-|-(3)---------/5--0---|
|-3p1-3--------------3-|-(3)-----3-1-/5--0---|
|-3p1-3--0-0-0-0-0-0-3-|-(3)-1-1-3-1-/5--0---|


   Chorus
    E E E E E E E  E    +E   E  E  E  E  E  E  E
||-------------------|---------------------------|
||o------------------|---------------------------|
||--9-9-9-9-9-9-9----|---------------------------|
||--7-7-7-7-7-7-7-10-|-(10)-10-10-10-10-10-10-10-|
||o-5-5-5-5-5-5-5--8-|--(8)--8--8--8--8--8--8--8-|
||-----------------8-|--(8)--8--8--8--8--8--8--8-|


  E E E E E E E E   +E  E E E E E E E
|-----------------|--------------------|
|-----------------|--------------------|
|-----------------|--------------------|
|-5-5-5-5-5-5-5-7-|-(7)-7-7-7-7-7-7-7--|
|-5-3-3-3-3-3-3-5-|-(5)-5-5-5-5-5-5-5--|
|-3-3-3-3-3-3-3-5-|-(5)-5-5-5-5-5-5-5--|


  E E E E E E E  E    +E   E  E  E  E  E  E  E
|------------------|---------------------------|
|------------------|---------------------------|
|-9-9-9-9-9-9-9----|---------------------------|
|-7-7-7-7-7-7-7-10-|-(10)-10-10-10-10-10-10-10-|
|-5-5-5-5-5-5-5--8-|--(8)--8--8--8--8--8--8--8-|
|----------------8-|--(8)--8--8--8--8--8--8--8-|


                        PM----------|
  E E E E E E E E   +E  E E E E E E E
|-----------------|--------------------||
|-----------------|-------------------o||
|-----------------|--------------------||
|-5-5-5-5-5-5-5-5-|-(5)-3-3-3-3-3-3-3--||
|-5-3-3-3-3-3-3-3-|-(3)-1-1-1-1-1-1-1-o||
|-3-3-3-3-3-3-3-3-|-(3)-1-1-1-1-1-1-1--||


             PM--------|
    E  E  Q  S S S S S S E   +E   E  Q    Q   Q
||-------------------------|---------------------|
||o------------------------|---------------------|
||-------------------------|---------------------|
||--8-\6-/8--------------8-|-(8)-\6-/8--/10--\6--|
||o------------------------|---------------------|
||--8-\6-/8--0-0-0-0-0-0-8-|-(8)-\6-/8--/10--\6--|


           PM--------|
  E  E  Q  S S S S S S E   +E   E  Q    Q   Q
|------------------------|------------------------||
|------------------------|-----------------------o||
|------------------------|------------------------||
|-8-\6-/8--------------8-|-(8)-\6-/8--/10--\6-----||
|------------------------|-----------------------o||
|-8-\6-/8--0-0-0-0-0-0-8-|-(8)-\6-/8--/10--\6-----||


 Solo - OJ
  Gtr II
  E    E    E  E  E  E   E    E      E  E  E  E     Q       E E
|-------------10----13------------|----17p13--------------------|
|----------------------------13h==|=15-------15/---20-----------|
|----------12----12------0--------|-------------------------0-0-|
|---------------------------------|-----------------------------|
|-8---10--------------------------|-----------------------------|
|---------------------------------|-----------------------------|
|
| Gtr I
| PM--------------------------------|         PM------------|
| S S  S S  E  E  E  S S S S  S S    E  E  E  S  S  S S S S E E
|---------------------------------|-----------------------------|
|---------------------------------|-----------------------------|
|---------------------------------|-----------------------------|
|---------------------------------|-----------------------------|
|---------------------------------|-----------------------------|
|-1-1--1-1--1--------1-1-1-1--1-1-|--1--------0--0--0-0-0-0-0---|


  E    E    E   E  +E   E    E    S  S    +E   E  E  E     E   E   +E  E
|--------------------------------------|---------------------------------|
|----------------------10--------10h11-|-(11)p10-------------------------|
|----------10-/12-(12)------12---------|---------10-10/---12---7---(7)---|
|-7/---8-------------------------------|---------------------------------|
|--------------------------------------|---------------------------------|
|--------------------------------------|---------------------------------|
|
| PM---------------------------------------------------------------|
| S  S S S  E   E   E   S S  S S  S  S     E   E  E  S  S  S S S S  E  E
|--------------------------------------|---------------------------------|
|--------------------------------------|---------------------------------|
|--------------------------------------|---------------------------------|
|--------------------------------------|---------------------------------|
|--------------------------------------|---------------------------------|
|-1--1-1-1--1-----------3-3--3-3--3--3-|---3---------0--0--0-0-0-0--0----|


  S S S S S S S S S S S S S S S S
|---------------------------------|
|---------------------------------|
|-------------------------2-3-5-5-|
|---------2-3-5-5-2-3-5-5---------|
|-2-3-5-5-------------------------|
|---------------------------------|
|
| PM-------------------------------
| S S S S E   E   E   S S S S S S
|---------------------------------|
|---------------------------------|
|---------------------------------|
|---------------------------------|
|---------------------------------|
|-1-1-1-1-1-----------1-1-1-1-1-1-|


  S S  S  S S S  S  S  S  S  S  S  S  S  S  S
|---------------------------------------------|
|---------------------------------------------|
|-----------7-8-10-10-------------10-12-13-13-|
|-7-8-10-10-----------10-12-13-13-------------|
|---------------------------------------------|
|---------------------------------------------|
|
|-|              PM---------------|
| E    E    E    S  S  S  S  S  S  E     E
|---------------------------------------------|
|---------------------------------------------|
|---------------------------------------------|
|---------------------------------------------|
|---------------------------------------------|
|-1--------------0--0--0--0--0--0--0----------|


   S  S  S  S  S  S  S  S  S  S  S  S  S  S  S  S
|-------------------------------------------------|
|-------------------------------------------------|
|-12-13-12-10----10-12-13-12-10----10-12-13-12-10-|
|-------------12----------------12----------------|
|-------------------------------------------------|
|-------------------------------------------------|
|
|  PM----------------------------------------------
|  S  S  S  S  E     E     E     S  S  S  S  S  S
|-------------------------------------------------|
|-------------------------------------------------|
|-------------------------------------------------|
|-------------------------------------------------|
|-------------------------------------------------|
|--1--1--1--1--1-----------------3--3--3--3--3--3-|


                           ~~~~~~
   S  S  S  S  S  S  S  S  H
|-------------------------------------------|
|-------------------------13b15=============|
|----10-12-13-12-10----10-------------------|
|-12----------------12----------------------|
|-------------------------------------------|
|-------------------------------------------|
|
|--------------------------------------|
|  E     E     E     S  S  S     S S S E E
|-------------------------------------------|
|-------------------------------------------|
|-------------------------------------------|
|-------------------------------------------|
|--------------------------------------0----|
|--3-----------------0--0--0-----0-0-0-0----|


                                                          |------3------|
   E.      E.    E.    E.      +Q           +Q    Q       Q      Q      Q
|----------------------------------------|-----------------------------10---|
|----------------------------------------|----------------------13----------|
|-10------12----14----10------(10)-------|-(10)---------/12-----------------|
|----------------------------------------|----------------------------------|
|--8------10----12-----8-------(8)-------|--(8)-----------------------------|
|----------------------------------------|----------------------------------|
|
|  PM--------------------------------------|        PM---------------|
|  S  S S  S  E  E  E     S S   S  S S S     E  E E S S   S S S    S E    E
|----------------------------------------|----------------------------------|
|----------------------------------------|----------------------------------|
|----------------------------------------|----------------------------------|
|----------------------------------------|----------------------------------|
|----------------------------------------|----------------------------------|
|--1--1-1--1--1-----------1-1---1--1-1-1-|---1------0-0---0-0-0----0-0------|


   E.     S  S  S  E.   S  S  S  E.     S
|-13p====10----10-15p==10----10-13p====10-|
|-----------13------------13--------------|
|-----------------------------------------|
|-----------------------------------------|
|-----------------------------------------|
|-----------------------------------------|
|
|  PM--------------------------------------
|  S S S  S  E     E E     S  S  S S S  S
|-----------------------------------------|
|-----------------------------------------|
|-----------------------------------------|
|-----------------------------------------|
|-----------------------------------------|
|--1-1-1--1--1-------------3--3--3-3-3--3-|


   S  S  E.   S  S  S  S  S  S  S  E E
|----10-15p==10----10-13p10----10-15---|
|-13------------13----------13---------|
|--------------------------------------|
|--------------------------------------|
|--------------------------------------|
|--------------------------------------|
|
|---------------------------------|
|  E     E E     S  S  S  S  S  S  E E
|--------------------------------------|
|--------------------------------------|
|--------------------------------------|
|--------------------------------------|
|--------------------------------------|
|--3-------------0--0--0--0--0--0--0---|


   S  S  S  S  S  S  S  S  S  S  S  S  S  S  S  S
|-15p13-17p13-15p13-17p13-15p13-17p13-18p13-17p13-|
|-------------------------------------------------|
|-------------------------------------------------|
|-------------------------------------------------|
|-------------------------------------------------|
|-------------------------------------------------|
|
|  PM----------------------------------------------
|  S  S  S  S  E     E     E     S  S  S  S  S  S
|-------------------------------------------------|
|-------------------------------------------------|
|-------------------------------------------------|
|-------------------------------------------------|
|-------------------------------------------------|
|--1--1--1--1--1-----------------1--1--1--1--1--1-|


   S  S  S  S  S  S  S  S  S  S  S  S  S  S  S  S
|-18p13-17p13-18p13-17p13-18p13-17p13-15p13-17p13-|
|-------------------------------------------------|
|-------------------------------------------------|
|-------------------------------------------------|
|-------------------------------------------------|
|-------------------------------------------------|
|
|-|                  PM---------------|
|  E     E     E     S  S  S  S  S  S  E     E
|-------------------------------------------------|
|-------------------------------------------------|
|-------------------------------------------------|
|-------------------------------------------------|
|-------------------------------------------------|
|--1-----------------0--0--0--0--0--0--0----------|


   S  S  S  S  S  S  S  S  S  S  S  S  S  S  S  S
|-17p13----------13-17p13----------13-17p13-------|
|-------15----15----------15----15----------15----|
|----------14----------------14----------------14-|
|-------------------------------------------------|
|-------------------------------------------------|
|-------------------------------------------------|
|
|  PM----------------------------------------------
|  S  S  S  S  E     E     E     S  S  S  S  S  S
|-------------------------------------------------|
|-------------------------------------------------|
|-------------------------------------------------|
|-------------------------------------------------|
|-------------------------------------------------|
|--1--1--1--1--1-----------------3--3--3--3--3--3-|


                           ~~~~~
   S  S  S  S  S  S  S  S  Q           +Q
|----13-17p13----------13-20b22-------(20)-------|
|-15----------15----15---------------------------|
|----------------14------------------------------|
|------------------------------------------------|
|------------------------------------------------|
|------------------------------------------------|
|
|----------------------------------------------|
|  E     E     E     S  S  S    S S S   S  S S S
|------------------------------------------------|
|------------------------------------------------|
|------------------------------------------------|
|------------------------------------------------|
|------------------------------------------------|
|--3-----------------0--0--0----0-0-0---0--0-0-0-|


   Verse
    Gtr I
           PM--------|         PM----|
    E E Q  S S S S S S E   +E  S S E E  Q   Q   4x
||-----------------------|----------------------||
||o----------------------|---------------------o||
||-----------------------|----------------------||
||--3p1-3--------------3-|-(3)---------/5--\1---||
||o-3p1-3--------------3-|-(3)-----3-1-/5--\1--o||
||--3p1-3--0-0-0-0-0-0-3-|-(3)-1-1-3-1-/5--\1---||


        PM----|           PM|                PM----|           PM|
  E E E E E E E E   +E  E E E  Q  Q    E E E E E E E E   +E  E E E   Q  Q
|-----------------|------------------|-----------------|-------------------|
|-----------------|------------------|-----------------|-------------------|
|-----------------|------------------|-----------------|----------------0--|
|-8p6-8---------8-|-(8)p6-----10--6--|-8p6-8---------8-|-(8)p6-----/10-----|
|-8p6-8---------8-|-(8)p6-8-6-10--6--|-8p6-8---------8-|-(8)p6-8-6-/10-----|
|-8p6-8-0-0-0-0-8-|-(8)p6-8-6-10--6--|-8p6-8-0-0-0-0-8-|-(8)p6-8-6-/10-----|


         PM--------|         PM----|
  E E Q  S S S S S S E   +E  S S E E  Q   Q
|----------------------|---------------------|
|----------------------|---------------------|
|----------------------|---------------------|
|-3p1-3--------------3-|-(3)---------/5--\1--|
|-3p1-3--------------3-|-(3)-----3-1-/5--\1--|
|-3p1-3--0-0-0-0-0-0-3-|-(3)-1-1-3-1-/5--\1--|


         PM--------|         PM----|
  E E Q  S S S S S S E   +E  S S E E  Q  Q
|----------------------|---------------------|
|----------------------|---------------------|
|----------------------|---------------------|
|-3p1-3--------------3-|-(3)---------/5--0---|
|-3p1-3--------------3-|-(3)-----3-1-/5--0---|
|-3p1-3--0-0-0-0-0-0-3-|-(3)-1-1-3-1-/5--0---|


   Chorus
    Gtr II
                                       ~~~~~~~~~~~~
    E E E E E E  E  E     E   E  E  E  H
||--5-----8-----12----|------15----17-------------|
||o---6-----6------10-|---------13----13----------|
||------7-----5-------|---9-----------------------|
||--------------------|---------------------------|
||o-------------------|---------------------------|
||--------------------|---------------------------|
|
|   Gtr I
|   E E E E E E  E  E    +E   E  E  E  E  E  E  E
||--------------------|---------------------------|
||o-------------------|---------------------------|
||--9-9-9-9-9-9--9----|---------------------------|
||--7-7-7-7-7-7--7-10-|-(10)-10-10-10-10-10-10-10-|
||o-5-5-5-5-5-5--5--8-|--(8)--8--8--8--8--8--8--8-|
||------------------8-|--(8)--8--8--8--8--8--8--8-|


 ~~~~~~
   +H         +E   E  +Q       H.            +E  E
|---------------------------|-----------------------|
|-(13)-------(13)-15-(15)---|-10------------(10)----|
|---------------------------|--------------------7--|
|---------------------------|-----------------------|
|---------------------------|-----------------------|
|---------------------------|-----------------------|
|
|   E  E E E   E   E   E  E   +E  E E E E E   E  E
|---------------------------|-----------------------|
|---------------------------|-----------------------|
|---------------------------|-----------------------|
|---5--5-5-5---5---5---5--7-|-(7)-7-7-7-7-7---7--7--|
|---5--3-3-3---3---3---3--5-|-(5)-5-5-5-5-5---5--5--|
|---3--3-3-3---3---3---3--5-|-(5)-5-5-5-5-5---5--5--|


                                     ~~~~~~~~~~~~
  E E E E E E  E  E     E   E  E  E  H
|-5-----8-----12----|------15----17-------------|
|---6-----6------10-|---------13----13----------|
|-----7-----5-------|---9-----------------------|
|-------------------|---------------------------|
|-------------------|---------------------------|
|-------------------|---------------------------|
|
| E E E E E E  E  E    +E   E  E  E  E  E  E  E
|-------------------|---------------------------|
|-------------------|---------------------------|
|-9-9-9-9-9-9--9----|---------------------------|
|-7-7-7-7-7-7--7-10-|-(10)-10-10-10-10-10-10-10-|
|-5-5-5-5-5-5--5--8-|--(8)--8--8--8--8--8--8--8-|
|-----------------8-|--(8)--8--8--8--8--8--8--8-|


 ~~~~~~
   +H         +E   E  +Q       W
|---------------------------|--------------------||
|-(13)-------(13)-17-(17)---|-15----------------o||
|---------------------------|--------------------||
|---------------------------|--------------------||
|---------------------------|-------------------o||
|---------------------------|--------------------||
|
|                                 PM----------|
|   E  E E E   E   E   E  E   +E  E E E E E E E
|---------------------------|--------------------||
|---------------------------|-------------------o||
|---------------------------|--------------------||
|---5--5-5-5---5---5---5--5-|-(5)-3-3-3-3-3-3-3--||
|---5--3-3-3---3---3---3--3-|-(3)-1-1-1-1-1-1-1-o||
|---3--3-3-3---3---3---3--3-|-(3)-1-1-1-1-1-1-1--||


 Interlude
  Gtr III
  E E E E E E E E    E  E E E E E E E   E E E  E E E E E   E E E E E E E E
|-----------------|-------------------|------------------|-----------------|
|---0-----0-----0-|-----0-----0-----0-|---0------0-----0-|---0-----0-----0-|
|-----3-----3-----|-------3-----3-----|-----3------3-----|-----3-----3-----|
|-1-----1-----1---|--1------1-----1---|-0------0-----0---|-0-----0-----0---|
|-----------------|-------------------|------------------|-----------------|
|-----------------|-------------------|------------------|-----------------|
|
|                                       PM|
| W                 +W                  e e H.             W
|-----------------|-------------------|------------------|-----------------|
|-----------------|-------------------|------------------|-----------------|
|-3---------------|-(3)---------------|------------------|-----------------|
|-1---------------|-(1)---------------|------------------|-----------------|
|-1---------------|-(1)---------------|-0-0--------------|-----------------|
|-1---------------|-(1)---------------|-0-0--------------|-----------------|


  E E E E E E E E    E  E E E E E E E   E E E E E E E E   E E E E E E E E
|-----------------|-------------------|-----------------|-----------------|
|---0-----0-----0-|-----0-----0-----0-|---0-----0-----0-|---0-----0-----0-|
|-----3-----3-----|-------3-----3-----|-----3-----3-----|-----3-----3-----|
|-1-----1-----1---|--1------1-----1---|-0-----0-----0---|-0-----0-----0---|
|-----------------|-------------------|-----------------|-----------------|
|-----------------|-------------------|-----------------|-----------------|
|
|                                       PM|   PM|
| W                 +W                  e e e e e E Q     W
|-----------------|-------------------|-----------------|-----------------|
|-----------------|-------------------|-----------------|-----------------|
|-3---------------|-(3)---------------|-----------------|-----------------|
|-1---------------|-(1)---------------|-----------------|-----------------|
|-1---------------|-(1)---------------|-0-0---0-0-------|-----------------|
|-1---------------|-(1)---------------|-0-0---0-0-------|-----------------|


  E E E E E E E E    E  E E E E E E E   E E E  E E E E E   E E E E E E E E
|-----------------|-------------------|------------------|-----------------|
|---0-----0-----0-|-----0-----0-----0-|---0------0-----0-|---0-----0-----0-|
|-----3-----3-----|-------3-----3-----|-----3------3-----|-----3-----3-----|
|-1-----1-----1---|--1------1-----1---|-0------0-----0---|-0-----0-----0---|
|-----------------|-------------------|------------------|-----------------|
|-----------------|-------------------|------------------|-----------------|
|
|                                       PM|
| W                 +W                  e e H.             W
|-----------------|-------------------|------------------|-----------------|
|-----------------|-------------------|------------------|-----------------|
|-3---------------|-(3)---------------|------------------|-----------------|
|-1---------------|-(1)---------------|------------------|-----------------|
|-1---------------|-(1)---------------|-0-0--------------|-----------------|
|-1---------------|-(1)---------------|-0-0--------------|-----------------|


  E E E E E E E E    E  E E E E E E E   W                 W
|-----------------|-------------------|-----------------|----------------|
|---0-----0-----0-|-----0-----0-----0-|-----------------|----------------|
|-----3-----3-----|-------3-----3-----|-----------------|----------------|
|-1-----1-----1---|--1------1-----1---|-----------------|----------------|
|-----------------|-------------------|-----------------|----------------|
|-----------------|-------------------|-----------------|----------------|
|
|                                       PM|   PM|   PM--------------|
| W                 +W                  e e e e e e e e   e e e e e e Q
|-----------------|-------------------|-----------------|----------------|
|-----------------|-------------------|-----------------|----------------|
|-3---------------|-(3)---------------|-----------------|----------------|
|-1---------------|-(1)---------------|-----------------|----------------|
|-1---------------|-(1)---------------|-0-0---0-0---0-0-|---0-0---0-0----|
|-1---------------|-(1)---------------|-0-0---0-0---0-0-|---0-0---0-0----|


  Gtr I
  PM------|          PM------|            PM|   PM|          PM------|
  E E E E E  E E E   E E E E E  E E E   E E E E E E  E E   E E E E E E  E E
|------------------|------------------|------------------|------------------|
|------------------|------------------|------------------|------------------|
|------------------|------------------|------------------|------------------|
|--------------5---|--------------5---|----------------5-|----------------5-|
|-0-0---0-0-/6---6-|-0-0---0-0-/6---6-|-3-0-0---0-0-/6---|-6-0-0---0-0-/6---|
|-0-0---0-0--------|-0-0---0-0--------|---0-0---0-0------|---0-0---0-0------|


      PM------|          PM------|            PM------|          PM------|
  E E E E E E E  E   E E E E E E E  E   E E E E E E E E    E E E E E E E E
|------------------|------------------|-----------------|------------------|
|------------------|------------------|-----------------|------------------|
|------------------|------------------|-----------------|------------------|
|------------------|-5----------------|-5---------------|----5-------------|
|-6-3-0-0---0-0-/6-|---6-0-0---0-0-/6-|---6-3-0-0---0-0-|-/6---6-0-0---0-0-|
|-----0-0---0-0----|-----0-0---0-0----|-------0-0---0-0-|--------0-0---0-0-|


 2/4         4/4
  Gtr I
              PM------|          PM------|
   E E E  E   E E E E E  E E E   E E E E E  E E E
|-----------|------------------|------------------|
|-----------|------------------|------------------|
|-----------|------------------|------------------|
|----5-5-/8-|--------------5---|--------------5---|
|-/6--------|-0-0---0-0-/6---6-|-0-0---0-0-/6---6-|
|-----------|-0-0---0-0--------|-0-0---0-0--------|
|
| Gtr II
|             PM------|          PM------|
|  E E E  E   E E E E E  E E E   E E E E E  E E E
|-----------|------------------|------------------|
|-----------|------------------|------------------|
|-----------|------------------|------------------|
|----5-5-/8-|------------------|------------------|
|-/6--------|-0-0---0-0--------|-0-0---0-0--------|
|-----------|-0-0---0-0--1-5-1-|-0-0---0-0--1-5-1-|


    PM|   PM|          PM------|
  E E E E E E  E E   E E E E E E  E E
|------------------|--------------------|
|------------------|--------------------|
|------------------|--------------------|
|----------------5-|----------------5---|
|-3-0-0---0-0-/6---|-6-0-0---0-0-/6-----|
|---0-0---0-0------|---0-0---0-0--------|
|
|   PM|   PM|          PM------|
| E E E E E E  E E   E E E E E E  E E
|------------------|--------------------|
|------------------|--------------------|
|------------------|--------------------|
|------------------|--------------------|
|-3-0-0---0-0------|---0-0---0-0--------|
|---0-0---0-0--1-5-|-1-0-0---0-0--1-5---|


      PM------|          PM------|
  E E E E E E E  E   E E E E E E E  E
|------------------|------------------|
|------------------|------------------|
|------------------|------------------|
|------------------|-5----------------|
|-6-3-0-0---0-0-/6-|---6-0-0---0-0-/6-|
|-----0-0---0-0----|-----0-0---0-0----|
|
|     PM------|          PM------|
| E E E E E E E  E   E E E E E E E  E
|------------------|------------------|
|------------------|------------------|
|------------------|------------------|
|------------------|------------------|
|---3-0-0---0-0----|-----0-0---0-0----|
|-1---0-0---0-0--1-|-5-1-0-0---0-0--1-|


                                      2/4
        PM|   PM|          PM------|
  E E E E E E E E    E E E E E E E E    E E E  E
|-----------------|------------------|-----------|
|-----------------|------------------|-----------|
|-----------------|------------------|-----------|
|-5---------------|----5-------------|----5-5-/8-|
|---6-3-0-0---0-0-|-/6---6-0-0---0-0-|-/6--------|
|-------0-0---0-0-|--------0-0---0-0-|-----------|
|
|       PM|   PM|          PM------|
| E E E E E E E E    E E E E E E E E    E E E  E
|-----------------|------------------|-----------|
|-----------------|------------------|-----------|
|-----------------|------------------|-----------|
|-----------------|------------------|-----------|
|-----3-0-0---0-0-|--------0-0---0-0-|-----------|
|-5-1---0-0---0-0-|--1-5-1-0-0---0-0-|--1-5-5-/8-|


  Q=162
 4/4
  Gtr I
                               |---3----|
   W                +H        +Q    Q   Q
|-----------------|-----------------------|
|-----------------|-----------------------|
|-/9--------------|-(9)-------(9)---9---9-|
|-----------------|-----------------------|
|-----------------|-----------------------|
|-----------------|-----------------------|
|
| Gtr II
|  PM--------------------------------------
|  E E E E E E Q     E  E E E  E  E   Q
|-----------------|-----------------------|
|-----------------|-----------------------|
|-----------------|-----------------------|
|-----------------|-----------------------|
|--0-0---0-0------|--0--0---0--0----------|
|--0-0---0-0------|--0--0---0--0----------|
|
| Gtr III
|  W                +W
|--0--------------|-(0)-------------------|
|--6--------------|-(6)-------------------|
|--7--------------|-(7)-------------------|
|--0--------------|-(0)-------------------|
|-----------------|-----------------------|
|-----------------|-----------------------|


                                |----3----|
  Q    H.            +H        +Q    Q    Q
|------------------|-------------------------|
|------------------|-----------------5---\1--|
|-9---\5-----------|-(5)-------(5)-----------|
|------------------|-------------------------|
|------------------|-------------------------|
|------------------|-------------------------|
|
|----------------------------------|
| E E  E  E E E Q     E  E E E  E  E   Q
|------------------|-------------------------|
|------------------|-------------------------|
|------------------|-------------------------|
|------------------|-------------------------|
|---0--0----0-0----|-----0-0----0--0---------|
|---0--0----0-0----|-----0-0----0--0---------|
|
| W                  +W
|-0----------------|-(0)---------------------|
|-6----------------|-(6)---------------------|
|-7----------------|-(7)---------------------|
|-x----------------|-(x)---------------------|
|-8----------------|-(8)---------------------|
|------------------|-------------------------|


  W                +W
|----------------|------------------|
|-8--------------|-(8)--------------|
|----------------|------------------|
|----------------|------------------|
|----------------|------------------|
|----------------|------------------|
|
|    PM------------------------------
| Q  E E E E E E    Q   E E E E E E
|----------------|------------------|
|----------------|------------------|
|----------------|------------------|
|----------------|------------------|
|----0-0---0-0---|------0-0---0-0---|
|----0-0---0-0---|------0-0---0-0---|
|
| W                +W
|-0--------------|-(0)--------------|
|-6--------------|-(6)--------------|
|-7--------------|-(7)--------------|
|-5--------------|-(5)--------------|
|----------------|------------------|
|----------------|------------------|


                         6/4
   |-3--|   |---3---|                         |-3-|
   Q  Q Q   Q   Q   Q     S S E +E  E E E E E E E E Q
|-----6-8---6-----------|---------------5-8-5----------|
|-/6------------6---5---|-5h6p5-(5)---6-------8-7-6-5--|
|-----------------------|-----------7------------------|
|-----------------------|------------------------------|
|-----------------------|------------------------------|
|-----------------------|------------------------------|
|
|-------------------------------------------|
|  Q.     E E E   E   E   Q.        E E E E E H
|-----------------------|------------------------------|
|-----------------------|------------------------------|
|-----------------------|------------------------------|
|-----------------------|------------------------------|
|---------0-0-----0---0-|-----------0-0---0-0----------|
|---------0-0-----0---0-|-----------0-0---0-0----------|
|
|  W                      Q      Q    Q   Q   Q     Q
|--0--------------------|-----------------0------------|
|--6--------------------|-------------6-------6--------|
|--7--------------------|--------7------------------7--|
|--8--------------------|-7----------------------------|
|-----------------------|------------------------------|
|-----------------------|------------------------------|


 4/4
  W                  +H.           Q
|------------------|------------------|
|------------------|------------------|
|-7b9--------------|-(7)--------------|
|------------------|---------------9--|
|------------------|------------------|
|------------------|------------------|
|
| PM-----------------------------------
| E   E E E E E Q     E  E E E E E Q
|------------------|------------------|
|------------------|------------------|
|------------------|------------------|
|------------------|------------------|
|-0---0---0-0------|--0--0---0-0------|
|-0---0---0-0------|--0--0---0-0------|
|
| W                  +W
|-0----------------|-(0)--------------|
|-6----------------|-(6)--------------|
|-7----------------|-(7)--------------|
|-0----------------|-(0)--------------|
|------------------|------------------|
|------------------|------------------|


                         ~~~
  +W                    +W
|---------------------|-------------------|
|---------------------|-------------------|
|---------------------|-------------------|
|-(9)b10--------------|-(9)---------------|
|---------------------|-------------------|
|---------------------|-------------------|
|
|-----------------------------------|
|  E     E E E E E Q     E  E E E E E Q
|---------------------|-------------------|
|---------------------|-------------------|
|---------------------|-------------------|
|---------------------|-------------------|
|--------0-0---0-0----|-----0-0---0-0-----|
|--------0-0---0-0----|-----0-0---0-0-----|
|
|  W                    +W
|--0------------------|-(0)---------------|
|--6------------------|-(6)---------------|
|--7------------------|-(7)---------------|
|--x------------------|-(x)---------------|
|--8------------------|-(8)---------------|
|---------------------|-------------------|


   \0.5                 \0.5
   W                    W
|--------------------|--------------------|
|--------------------|--------------------|
|-<5>----------------|-<5>----------------|
|-<5>----------------|--------------------|
|--------------------|--------------------|
|--------------------|--------------------|
|
|        PM--------------------------------
|  Q     E E E E E E    Q     E E E E E E
|--------------------|--------------------|
|--------------------|--------------------|
|--------------------|--------------------|
|--------------------|--------------------|
|--------0-0---0-0---|--------0-0---0-0---|
|--------0-0---0-0---|--------0-0---0-0---|
|
|  W                   +W
|--0-----------------|-(0)----------------|
|--6-----------------|-(6)----------------|
|--7-----------------|-(7)----------------|
|--5-----------------|-(5)----------------|
|--------------------|--------------------|
|--------------------|--------------------|


                           6/4
  |-3--|    |----3----|      |---3----|
  Q  Q Q    Q    Q    Q      Q   Q    Q    W
|------8---15-------------|----------13---12b13--------------|
|----6----------13--------|-----11---------------------------|
|-------------------------|----------------------------------|
|-5------------------12---|-10-------------------------------|
|-------------------------|----------------------------------|
|-------------------------|----------------------------------|
|
|---------------------------------------------------|
| Q.     E  E E    E    E    Q.         E  E    E E E H
|-------------------------|----------------------------------|
|-------------------------|----------------------------------|
|-------------------------|----------------------------------|
|-------------------------|----------------------------------|
|--------0--0------0----0-|-------------0--0------0-0--------|
|--------0--0------0----0-|-------------0--0------0-0--------|
|
| W                          Q     Q       Q      Q   Q  Q
|-0-----------------------|-----------------------0----------|
|-6-----------------------|----------------6----------6------|
|-7-----------------------|--------7---------------------7---|
|-8-----------------------|--7-------------------------------|
|-------------------------|----------------------------------|
|-------------------------|----------------------------------|


 4/4
                            |---3----|  |-----3------|
   H           H            E   E    E  E     +E     E  E  S   S  Q
|-12b13-------12b13------|-10----------------------------------------|
|------------------------|-----13p==10--------------------10-/12-10--|
|------------------------|-------------12b13-(12)p==10----10-/12-10--|
|------------------------|-----------------------------12------------|
|------------------------|-------------------------------------------|
|------------------------|-------------------------------------------|
|
|  PM-----------------------------------------------------------------
|  E    E E E  E    E Q     E     E     E         E     E  E      Q
|------------------------|-------------------------------------------|
|------------------------|-------------------------------------------|
|------------------------|-------------------------------------------|
|------------------------|-------------------------------------------|
|--0----0---0--0---------|--0-----0---------------0-----0------------|
|--0----0---0--0---------|--0-----0---------------0-----0------------|
|
|  W                       +W
|--0---------------------|-(0)---------------------------------------|
|--6---------------------|-(6)---------------------------------------|
|--7---------------------|-(7)---------------------------------------|
|--0---------------------|-(0)---------------------------------------|
|------------------------|-------------------------------------------|
|------------------------|-------------------------------------------|


   +H.            +E   S  S    E   E  +E   E  S   S   E  +Q
|---------------------------|----------------------------------|
|-(10)-----------(10)-------|-----10-(10)----10-/12-\10-(10)---|
|-(10)-----------(10)-------|-----10-(10)----10-/12-\10-(10)---|
|---------------------12p10-|-12----------12-------------------|
|---------------------------|----------------------------------|
|---------------------------|----------------------------------|
|
|---------------------------------------------------|
|   E  E E E E E   Q           E   E   E   E  E       E   Q
|---------------------------|----------------------------------|
|---------------------------|----------------------------------|
|---------------------------|----------------------------------|
|---------------------------|----------------------------------|
|------0-0---0-0------------|------0---0------0-------0--------|
|------0-0---0-0------------|------0---0------0-------0--------|
|
|   W                         +W
|---0-----------------------|-(0)------------------------------|
|---6-----------------------|-(6)------------------------------|
|---7-----------------------|-(7)------------------------------|
|---x-----------------------|-(x)------------------------------|
|---8-----------------------|-(8)------------------------------|
|---------------------------|----------------------------------|


   H.           +E   S  S    E   E  +Q     S   S   E  +Q
|-------------------------|---------------------------------|
|-10-----------(10)-------|-----12-(12)---10-/12-\10-(10)---|
|-10-----------(10)-------|-----12-(12)---10-/12-\10-(10)---|
|-------------------12p10-|-12------------------------------|
|-------------------------|---------------------------------|
|-------------------------|---------------------------------|
|
|      PM----------------------------------------------------
|  Q   E E E E   E   E       Q       E  E  E       E   E  E
|-------------------------|---------------------------------|
|-------------------------|---------------------------------|
|-------------------------|---------------------------------|
|-------------------------|---------------------------------|
|------0-0---0---0--------|----------0--0----------0---0----|
|------0-0---0---0--------|----------0--0----------0---0----|
|
|  W                        +W
|--0----------------------|-(0)-----------------------------|
|--6----------------------|-(6)-----------------------------|
|--7----------------------|-(7)-----------------------------|
|--5----------------------|-(5)-----------------------------|
|-------------------------|---------------------------------|
|-------------------------|---------------------------------|


                                    6/4
                                                      ~~
         |--3---|    |----3----|      |----3-----|
   a  a  Q   Q  Q    Q    Q    Q      E  E  Q    Q    W
|-------15--15-15---15---15---15---|-15h17-15---15---15---------------|
|----13----------------------------|----------------------------------|
|-14-------------------------------|----------------------------------|
|----------------------------------|----------------------------------|
|----------------------------------|----------------------------------|
|----------------------------------|----------------------------------|
|
|-----------------------------------------------------------|
|        Q.       E  E E    E    E    Q.           E  E E E E H
|----------------------------------|----------------------------------|
|----------------------------------|----------------------------------|
|----------------------------------|----------------------------------|
|----------------------------------|----------------------------------|
|-----------------0--0------0----0-|---------------0--0---0-0---------|
|-----------------0--0------0----0-|---------------0--0---0-0---------|
|
|        W                            Q       Q       Q   Q   Q  Q
|--------0-------------------------|----------------------0-----------|
|--------6-------------------------|------------------6-------6-------|
|--------7-------------------------|----------7------------------7----|
|--------8-------------------------|--7-------------------------------|
|----------------------------------|----------------------------------|
|----------------------------------|----------------------------------|


 4/4
                     \1                             \1
  |-3-|     |-3-|               |-3--|     |-3-|
  S S S S S S S S E +H          S  S S S S S S S E +H
|----------------------------|------------------------------|
|----------------------------|------------------------------|
|----------------------------|------------------------------|
|-------3h5h7p5p3-2-(2)------|---------3h5h7p5p3-2-(2)------|
|-3h5h7----------------------|--3h=5h7----------------------|
|----------------------------|------------------------------|
|
| PM---------------------------------------------------------
| E     E   E     E  E  E Q     E      E   E     E  E  E Q
|----------------------------|------------------------------|
|----------------------------|------------------------------|
|----------------------------|------------------------------|
|----------------------------|------------------------------|
|-0-----0---------0--0-------|--0------0---------0--0-------|
|-0-----0---------0--0-------|--0------0---------0--0-------|
|
| W                            +W
|-0--------------------------|-(0)--------------------------|
|-6--------------------------|-(6)--------------------------|
|-7--------------------------|-(7)--------------------------|
|-0--------------------------|-(0)--------------------------|
|----------------------------|------------------------------|
|----------------------------|------------------------------|


                          ~~~~~~~~~~~~~~~~~~~~~
  |-3-|     |-3-|
  S S S S S S S S +E  Q   Q    +H        H
|----------------------------|------------------------|
|----------------------------|------------------------|
|-------3h5h7p5p3-(3)-9---5--|-(5)-------5(17)--------|
|-3h5h7----------------------|------------------------|
|----------------------------|------------------------|
|----------------------------|------------------------|
|
|----------------------------------------------|
| E     E   E      E  E E Q     E  E E E E     E Q
|----------------------------|------------------------|
|----------------------------|------------------------|
|----------------------------|------------------------|
|----------------------------|------------------------|
|-------0---0---------0-0----|-----0-0---0-----0------|
|-------0---0---------0-0----|-----0-0---0-----0------|
|
| W                            +W
|-0--------------------------|-(0)--------------------|
|-6--------------------------|-(6)--------------------|
|-7--------------------------|-(7)--------------------|
|-x--------------------------|-(x)--------------------|
|-8--------------------------|-(8)--------------------|
|----------------------------|------------------------|


                                                 \7
  |--3---|
  E +E   E S S  S S   S S  S S +Q      +H       +H
|-8-(8)h10p8p5-----------------------|--------------------|
|---------------8p5--10p5------------|--------------------|
|--------------------------7p5-(5)---|-(5)------(5)-------|
|------------------------------------|--------------------|
|------------------------------------|--------------------|
|------------------------------------|--------------------|
|
|          PM----------------------------------------------
| Q        E    E     E    E    E  E    Q   E E  E  E E E
|------------------------------------|--------------------|
|------------------------------------|--------------------|
|------------------------------------|--------------------|
|------------------------------------|--------------------|
|----------0----0----------0----0----|------0-0-----0-0---|
|----------0----0----------0----0----|------0-0-----0-0---|
|
| W                                    +W
|-0----------------------------------|-(0)----------------|
|-6----------------------------------|-(6)----------------|
|-7----------------------------------|-(7)----------------|
|-5----------------------------------|-(5)----------------|
|------------------------------------|--------------------|
|------------------------------------|--------------------|


                                                  6/4
     |-3-|      |-3--|      |--3--|      |--3--|
  E  S S S   E  S  S S   E  S  S  S   E  S  S  S    Q     Q    E  E  E  E  +H
|------------------------------------------------|--------------------------------|
|-8h10p8p5--10h13p10p8--13h15p13p10--15h17p15p13-|-17---/17---13----15-15-(15)----|
|------------------------------------------------|---------------14---------------|
|------------------------------------------------|--------------------------------|
|------------------------------------------------|--------------------------------|
|------------------------------------------------|--------------------------------|
|
|----------------------------------------------------------------------|
| Q.            E        E  E         E  E          Q.      E  E  E  E  E   H
|------------------------------------------------|--------------------------------|
|------------------------------------------------|--------------------------------|
|------------------------------------------------|--------------------------------|
|------------------------------------------------|--------------------------------|
|---------------0--------0------------0--0-------|----------0--0-----0--0---------|
|---------------0--------0------------0--0-------|----------0--0-----0--0---------|
|
| W                                                 Q     Q    Q     Q      Q   Q
|-0----------------------------------------------|-------------------0------------|
|-6----------------------------------------------|-------------6------------6-----|
|-7----------------------------------------------|--------7---------------------7-|
|-8----------------------------------------------|--7-----------------------------|
|------------------------------------------------|--------------------------------|
|------------------------------------------------|--------------------------------|


 4/4
  S S S S S S S S S S S S  S  S  S  S    S   S  S  S  S  S  S  S  S  S  S  S  S  S  S  S
|-5-8-5-------------------12-15-12----|--------------------------10-13-10----------------|
|-------6-5-6-5-6-5----------------13-|-12--13-12-13-12-------------------11-10-11-10-11-|
|-------------------7-5-7-------------|-----------------14-12-14-------------------------|
|-------------------------------------|--------------------------------------------------|
|-------------------------------------|--------------------------------------------------|
|-------------------------------------|--------------------------------------------------|
|
| PM--------------------------------------------------------------------------------------
| E   E   E   E   E   E    Q             E      E     E     E     E     E     Q
|-------------------------------------|--------------------------------------------------|
|-------------------------------------|--------------------------------------------------|
|-------------------------------------|--------------------------------------------------|
|-------------------------------------|--------------------------------------------------|
|-0---0-------0---0-------------------|--0------0-----------0-----0----------------------|
|-0---0-------0---0-------------------|--0------0-----------0-----0----------------------|
|
| W                                     +W
|-0-----------------------------------|-(0)----------------------------------------------|
|-6-----------------------------------|-(6)----------------------------------------------|
|-7-----------------------------------|-(7)----------------------------------------------|
|-0-----------------------------------|-(0)----------------------------------------------|
|-------------------------------------|--------------------------------------------------|
|-------------------------------------|--------------------------------------------------|


                                                                  ~~~
   S  S  S  S  S  S  S  S  S  S  S  S  S  S  S  S    S   S  S  S  H.
|-------------17-20-17----------------------------|-------------------------|
|-10-------------------18-17-18-17----------------|-------------------------|
|----12-10-12----------------------19-17-19-17----|-------------------------|
|----------------------------------------------19-|-17--19-17---------------|
|-------------------------------------------------|-----------20-19---------|
|-------------------------------------------------|-------------------------|
|
|--------------------------------------------------------------------|
|  E     E     E     E     E     E     Q             E   E  E  E  E  E Q
|-------------------------------------------------|-------------------------|
|-------------------------------------------------|-------------------------|
|-------------------------------------------------|-------------------------|
|-------------------------------------------------|-------------------------|
|--------0-----0-----------0-----0----------------|------0--0-----0--0------|
|--------0-----0-----------0-----0----------------|------0--0-----0--0------|
|
|  W                                                +W
|--0----------------------------------------------|-(0)---------------------|
|--6----------------------------------------------|-(6)---------------------|
|--7----------------------------------------------|-(7)---------------------|
|--x----------------------------------------------|-(x)---------------------|
|--8----------------------------------------------|-(8)---------------------|
|-------------------------------------------------|-------------------------|


   TP  TP   TP   TP     TP   TP   TP   TP
   Q   Q    Q    Q      Q    Q    Q    Q
|--------------------|---------------------|
|--------------------|-----------17---20---|
|--------------------|-14---17-------------|
|----------14---17---|---------------------|
|-12--15-------------|---------------------|
|--------------------|---------------------|
|
|      PM-----------------------------------
|  Q   E E  E E  E E    Q    E E  E E  E E
|--------------------|---------------------|
|--------------------|---------------------|
|--------------------|---------------------|
|--------------------|---------------------|
|------0-0----0--0---|-------0-0----0--0---|
|------0-0----0--0---|-------0-0----0--0---|
|
|  W                   +W
|--0-----------------|-(0)-----------------|
|--6-----------------|-(6)-----------------|
|--7-----------------|-(7)-----------------|
|--5-----------------|-(5)-----------------|
|--------------------|---------------------|
|--------------------|---------------------|


                         6/4
   TP   TP                         ~~~~~~~~~~~~~~~~~
   Q    Q    H             +Q      H           H         Q
|-17---20---22b24r======|=(22)----15b17-------15b17---------|
|-----------------------|-----------------------------------|
|-----------------------|-----------------------------------|
|-----------------------|-----------------------------------|
|-----------------------|-----------------------------------|
|-----------------------|-----------------------------------|
|
|---------------------------------------------|
|  Q.     E  E    E E E     Q.     E    E E E  E    H
|-----------------------|-----------------------------------|
|-----------------------|-----------------------------------|
|-----------------------|-----------------------------------|
|-----------------------|-----------------------------------|
|---------0--0------0-0-|----------0----0---0--0------------|
|---------0--0------0-0-|----------0----0---0--0------------|
|
|  W                        Q   Q       Q   Q       Q  Q
|--0--------------------|-------------------0---------------|
|--6--------------------|---------------6-----------6-------|
|--7--------------------|-------7----------------------7----|
|--8--------------------|---7-------------------------------|
|-----------------------|-----------------------------------|
|-----------------------|-----------------------------------|


 4/4
  Gtr I
         PM--------|         PM----|                  PM---------|
  E E Q  S S S S S S E   +E  S S E E  Q   Q    E E Q  S  S S S S S E
|----------------------|---------------------|------------------------|
|----------------------|---------------------|------------------------|
|----------------------|---------------------|------------------------|
|-3-1-3--------------3-|-(3)-----3-1-/5--\1--|-3-1-3---------------3--|
|-3-1-3--------------3-|-(3)-----3-1-/5--\1--|-3-1-3---------------3--|
|-3-1-3--0-0-0-0-0-0-3-|-(3)-1-1-3-1-/5--\1--|-3-1-3--0--0-0-0-0-0-3--|
|
| Gtr II
| E E Q  H                W                    E E Q  Q.           E
|----------------------|---------------------|------------------------|
|----------------------|---------------------|------------------------|
|----------------------|---------------------|------------------------|
|-3-1-3----------------|---------------------|-3-1-3---------------3--|
|-3-1-3----------------|---------------------|-3-1-3---------------3--|
|-3-1-3----------------|---------------------|-3-1-3---------------3--|


                Verse
          Gtr I
                        PM--------|         PM----|
  H.      Q      E E Q  S S S S S S E   +E  S S E E  Q   Q   4x
|------------||-----------------------|----------------------||
|------------||o----------------------|---------------------o||
|------------||-----------------------|----------------------||
|---------1--||--3p1-3--------------3-|-(3)---------/5--\1---||
|---------1--||o-3p1-3--------------3-|-(3)-----3-1-/5--\1--o||
|---------1--||--3p1-3--0-0-0-0-0-0-3-|-(3)-1-1-3-1-/5--\1---||


   Chorus
    Gtr I
     E  E  E  E  E  E  E  E    +E   E  E  E  E  E  E  E
||--------------------------|---------------------------|
||o-------------------------|---------------------------|
||---9--9--9--9--9--9--9----|---------------------------|
||---7--7--7--7--7--7--7-10-|-(10)-10-10-10-10-10-10-10-|
||o--5--5--5--5--5--5--5--8-|--(8)--8--8--8--8--8--8--8-|
||------------------------8-|--(8)--8--8--8--8--8--8--8-|
|
|   Gtr II
|    E  E  E  E  E  E  E  E    +E   E  E  E  E  E  E  E
||--------------------------|---------------------------|
||o-------------------------|---------------------------|
||--12-12-12-12-12-12-12--9-|--(9)--9--9--9--9--9--9--9-|
||--10-10-10-10-10-10-10--7-|--(7)--7--7--7--7--7--7--7-|
||o--8--8--8--8--8--8--8--5-|--(5)--5--5--5--5--5--5--5-|
||--------------------------|---------------------------|


  PM----------------------------------------------|
  E E E E E E E E   S S S S S S S S S S S S S S S S
|-----------------|---------------------------------|
|-----------------|---------------------------------|
|-----------------|---------------------------------|
|-----------------|---------------------------------|
|-3-3-3-3-3-3-3-3-|---------------------------------|
|-3-3-3-3-3-3-3-3-|-5-5-5-5-5-5-5-5-5-5-5-5-5-5-5-5-|
|
| PM----------------------------------------------|
| E E E E E E E E   S S S S S S S S S S S S S S S S
|-----------------|---------------------------------|
|-----------------|---------------------------------|
|-----------------|---------------------------------|
|-----------------|---------------------------------|
|-3-3-3-3-3-3-3-3-|---------------------------------|
|-3-3-3-3-3-3-3-3-|-5-5-5-5-5-5-5-5-5-5-5-5-5-5-5-5-|


   E  E  E  E  E  E  E  E    +E   E  E  E  E  E  E  E
|-------------------------|---------------------------|
|-------------------------|---------------------------|
|--9--9--9--9--9--9--9----|---------------------------|
|--7--7--7--7--7--7--7-10-|-(10)-10-10-10-10-10-10-10-|
|--5--5--5--5--5--5--5--8-|--(8)--8--8--8--8--8--8--8-|
|-----------------------8-|--(8)--8--8--8--8--8--8--8-|
|
|  E  E  E  E  E  E  E  E    +E   E  E  E  E  E  E  E
|-------------------------|---------------------------|
|-------------------------|---------------------------|
|-12-12-12-12-12-12-12--9-|--(9)--9--9--9--9--9--9--9-|
|-10-10-10-10-10-10-10--7-|--(7)--7--7--7--7--7--7--7-|
|--8--8--8--8--8--8--8--5-|--(5)--5--5--5--5--5--5--5-|
|-------------------------|---------------------------|


  PM----------------------------------------------|
  E E E E E E E E   S S S S S S S S S S S S S S S S
|-----------------|-----------------------------------||
|-----------------|----------------------------------o||
|-----------------|-----------------------------------||
|-----------------|-----------------------------------||
|-3-3-3-3-3-3-3-3-|----------------------------------o||
|-3-3-3-3-3-3-3-3-|-1-1-1-1-1-1-1-1-1-1-1-1-1-1-1-1---||
|
| PM----------------------------------------------|
| E E E E E E E E   S S S S S S S S S S S S S S S S
|-----------------|-----------------------------------||
|-----------------|----------------------------------o||
|-----------------|-----------------------------------||
|-----------------|-----------------------------------||
|-3-3-3-3-3-3-3-3-|----------------------------------o||
|-3-3-3-3-3-3-3-3-|-1-1-1-1-1-1-1-1-1-1-1-1-1-1-1-1---||


              PM--------|
     E  E  Q  S S S S S S  E    +E   E  Q   Q   Q
||---------------------------|---------------------|
||o--------------------------|---------------------|
||---------------------------|---------------------|
||---8--6--8---------------8-|--(8)--6--8--10---6--|
||o--------------------------|---------------------|
||---8--6--8--0-0-0-0-0-0--8-|--(8)--6--8--10---6--|
|
|             PM--------|
|    E  E  Q  S S S S S S  E    +E   E  Q   Q   Q
||---------------------------|---------------------|
||o--------------------------|---------------------|
||---------------------------|---------------------|
||--12-10-12--------------12-|-(12)-10-12--13--10--|
||o--------------------------|---------------------|
||--12-10-12--0-0-0-0-0-0-12-|-(12)-10-12--13--10--|


            PM--------|
   E  E  Q  S S S S S S  E    +E   E  Q   Q   Q
|--------------------------|------------------------||
|--------------------------|-----------------------o||
|--------------------------|------------------------||
|--8--6--8---------------8-|--(8)--6--8--10---6-----||
|--------------------------|-----------------------o||
|--8--6--8--0-0-0-0-0-0--8-|--(8)--6--8--10---6-----||
|
|           PM--------|
|  E  E  Q  S S S S S S  E    +E   E  Q   Q   Q
|--------------------------|------------------------||
|--------------------------|-----------------------o||
|--------------------------|------------------------||
|-12-10-12--------------12-|-(12)-10-12--13--10-----||
|--------------------------|-----------------------o||
|-12-10-12--0-0-0-0-0-0-12-|-(12)-10-12--13--10-----||


   |-3--|  |-3--|    |-3--|  |-3--|
   Q Q  Q  Q Q  Q    Q Q  Q  Q Q  Q
|-----------------|-----------------|
|-----------------|-----------------|
|----0-------0----|----0-------0----|
|------10------13-|------15------12-|
|-----------------|-----------------|
|-10------13------|-15------12------|
|
|  |-3--|  |-3--|    |-3--|  |-3--|
|  Q Q  Q  Q Q  Q    Q Q  Q  Q Q  Q
|-----------------|-----------
Добавлено: 28.02.2012
Другие материалы по этой песне:

Страница создана 28.02.2012
http://primanota.ru/byzantine/jeremiad-chords.htm
Привет, Гость.
Предлагаем пройти революционный курс по гитаре.
Подарок от PrimaNota.Ru, забирай!