PrimaNota.ru - самый крупный в мире бесплатный архив песенных текстов, аккордов, табулатур и нот


Byzantine - Five Faces Of Madness - таба, видео

Регистрация Запомнить меня
Войти через:  Facebook Google Twitter Vk Yandex Mail.ru

Byzantine - Five Faces Of Madness - таба, видео

Печатать
Просмотров: 127
As recorded by Byzantine

Transcribed by Tony Rohrbough
        

Words by Chris Ojeda Music by Byzantine
Arranged by Byzantine

Gtr I (C G C F A D) - 'Untitled'
Gtr II (C G C F A D) - 'Untitled'
Gtr III (C G C F A D) - 'Clean'
Gtr IV (C G C F A D) - 'Untitled'

   Intro
    Q=137
   4/4
    Gtr I
     H.                        Q         H.                       Q
||-------------------------------------|----------------------------------|
||o-10------------------------10-------|-9------------------------9-------|
||-------------------------------------|----------------------------------|
||---7-------------------------7-------|-6------------------------6-------|
||o------------------------------------|----------------------------------|
||-------------------------------------|----------------------------------|
|
|   Gtr II
|    PM-----------------------------------------------------------------|
|    S  S S S S S S S S S S S  S S S S   S  S S S S S S S S S S S S S S S
||-------------------------------------|----------------------------------|
||o------------------------------------|----------------------------------|
||-------------------------------------|----------------------------------|
||-------------------------------------|----------------------------------|
||o------------------------------------|----------------------------------|
||---0--0-0-0---0-0-0-0---0-0--0-0---0-|-0--0-0-0---0-0-0-0---0-0-0-0---0-|


   W                                  +W
|----------------------------------|------------------------------------|
|-13-------------------------------|-(13)-------------------------------|
|----------------------------------|------------------------------------|
|-10-------------------------------|-(10)-------------------------------|
|----------------------------------|------------------------------------|
|----------------------------------|------------------------------------|
|
|  PM-----------------------------------------------------------------|
|  S S S S S S S S S S S S S S S S     S  S S S S S S S S S S S S S S S
|----------------------------------|------------------------------------|
|----------------------------------|------------------------------------|
|----------------------------------|------------------------------------|
|----------------------------------|------------------------------------|
|----------------------------------|------------------------------------|
|--0-0-0-0---0-0-0-0---0-0-0-0---0-|---0--0-0-0---0-0-0-0---0-0-0-0---0-|


  S  S E   +E    S  S Q       S  S E     S  S E   +E    S  S Q       S  S E
|--------------------------------------|--------------------------------------|
|--------------------------------------|--------------------------------------|
|-9S10S9---(9)---9S10S9-------9S10S9---|-9S10S8---(8)---8S10S8-------8S10S8---|
|--------------------------------------|--------------------------------------|
|-7S=8S7---(7)---7S=8S7-------7S=8S7---|-7S=8S6---(6)---6S=8S6-------6S=8S6---|
|--------------------------------------|--------------------------------------|
|
| PM------------------------------------------------------------------------|
| S  S S S  S  S S  S S S S S S  S S S   S  S S S  S  S S  S S S S S S  S S S
|--------------------------------------|--------------------------------------|
|--------------------------------------|--------------------------------------|
|--------------------------------------|--------------------------------------|
|--------------------------------------|--------------------------------------|
|--------------------------------------|--------------------------------------|
|-2--2-2-2-----2-2--2-2---2-2-2--2---2-|-1--1-1-1-----1-1--1-1---1-1-1--1---1-|


   W                                  +W
|----------------------------------|-------------------------------------||
|----------------------------------|------------------------------------o||
|-12-------------------------------|-(12)--------------------------------||
|----------------------------------|-------------------------------------||
|-10-------------------------------|-(10)-------------------------------o||
|----------------------------------|-------------------------------------||
|
|  PM-----------------------------------------------------------------|
|  S S S S S S S S S S S S S S S S     S  S S S S S S S S S S S S S S S
|----------------------------------|-------------------------------------||
|----------------------------------|------------------------------------o||
|----------------------------------|-------------------------------------||
|----------------------------------|-------------------------------------||
|----------------------------------|------------------------------------o||
|--5-5-5-5---5-5-5-5---5-5-5-5---5-|---5--5-5-5---5-5-5-5---5-5-5-5---5--||


 4/4
  Gtr IV
   W           +W
|-----------|---------|
|-----------|---------|
|-14--------|-(14)----|
|-----------|---------|
|-12--------|-(12)----|
|-----------|---------|
|
| Gtr I
|  W           +W
|-----------|---------|
|-----------|---------|
|-10--------|-(10)----|
|-----------|---------|
|--8--------|--(8)----|
|-----------|---------|
|
| Gtr II
|  W           +W
|-----------|---------|
|-----------|---------|
|-----------|---------|
|--0--------|--(0)----|
|--0--------|--(0)----|
|--0--------|--(0)----|


   +W            W
|-------------|-------------|
|-------------|-------------|
|-(14)--------|-------------|
|-------------|-------------|
|-(12)--------|-------------|
|-------------|-------------|
|
|  +W            H     H
|-------------|-------------|
|-------------|-------------|
|-(10)--------|-------------|
|-------------|--8----10----|
|--(8)--------|-------------|
|-------------|--8----10----|
|
|   W            H     H
|-------------|-------------|
|-------------|-------------|
|-------------|-10-----8----|
|--(0)--------|-------------|
|---0---------|--8-----6----|
|--(0)--------|-------------|


   Verse
            PM|         PM--------------|         PM|         PM----|
    S S S S S S S S S S S S S S S S   S S S S S S S S S S S S S S S S
||----------------------------------|----------------------------------|
||o---------------------------------|----------------------------------|
||----------------------------------|----------------------------------|
||----------------------------------|----------------------------------|
||o-5-3-0-6-----5-3-0-6-------------|-----5-3-0-6-----5-3-0-6----------|
||----------0-0---------0-0-3-0-5-0-|-3-0---------0-0---------0-0-3-0--|


  PM----|         PM|         PM------------------|
  S S S S S S S S S S S S S S S S   S S S S S S S S S S S S S E.   4x
|---------------------------------|--------------------------------||
|---------------------------------|-------------------------------o||
|---------------------------------|--------------------------------||
|---------------------------------|--------------------------------||
|---------6-5-0-8-----6-5-0-8-----|-----------------8---8---8-6---o||
|-5-0-3-0---------0-0---------0-0-|-5-0-6-0-5-0-6-0-8---8---8-6----||


   Chorus
    Gtr I
                PM----|                     PM|
    E. E. E. E. S S S S   E E.   E. E. E.   S S
||----------------------|-----------------------|
||o---------------------|-----------------------|
||----------------------|-----------------------|
||--3-----2-------------|---3-------2-----------|
||o-3--6--2--5----------|---3----6--2--5--------|
||-----6-----5--2-2-3-3-|-2------6-----5----2-2-|
|
|   Gtr II
|               PM----|                     PM|
|   H.          S S S S   E E  H          E S S
||----------------------|-----------------------|
||o---------------------|-----------------------|
||----------------------|-----------------------|
||----------------------|-----------------------|
||o---------------------|-----------------------|
||--------------2-2-3-3-|-2-----------------2-2-|


  PM----|                      PM----|         PM|
  S S S S E E.   E. E. S   +E  S S S S E E. E. S S
|------------------------|--------------------------||
|------------------------|-------------------------o||
|------------------------|--------------------------||
|-----------1-------0----|---------------1----------||
|-----------1----4--0--3-|-(3)-----------1--4------o||
|-3-3-2-2-1------4-----3-|-(3)-1-1-2-2-1----4--0-0--||
|
| PM----|                      PM----|         PM|
| S S S S E E  H            E  S S S S E Q.    S S
|------------------------|--------------------------||
|------------------------|-------------------------o||
|------------------------|--------------------------||
|------------------------|--------------------------||
|------------------------|-------------------------o||
|-3-3-2-2-1--------------|-----1-1-2-2-1-------0-0--||


   Verse
            PM|         PM--------------|         PM|         PM----|
    S S S S S S S S S S S S S S S S   S S S S S S S S S S S S S S S S
||----------------------------------|----------------------------------|
||o---------------------------------|----------------------------------|
||----------------------------------|----------------------------------|
||----------------------------------|----------------------------------|
||o-5-3-0-6-----5-3-0-6-------------|-----5-3-0-6-----5-3-0-6----------|
||----------0-0---------0-0-3-0-5-0-|-3-0---------0-0---------0-0-3-0--|


  PM----|         PM|         PM------------------|
  S S S S S S S S S S S S S S S S   S S S S S S S S S S S S S E.   4x
|---------------------------------|--------------------------------||
|---------------------------------|-------------------------------o||
|---------------------------------|--------------------------------||
|---------------------------------|--------------------------------||
|---------6-5-0-8-----6-5-0-8-----|-----------------8---8---8-6---o||
|-5-0-3-0---------0-0---------0-0-|-5-0-6-0-5-0-6-0-8---8---8-6----||


   Chorus
    Gtr I
                PM----|                     PM|
    E. E. E. E. S S S S   E E.   E. E. E.   S S
||----------------------|-----------------------|
||o---------------------|-----------------------|
||----------------------|-----------------------|
||--3-----2-------------|---3-------2-----------|
||o-3--6--2--5----------|---3----6--2--5--------|
||-----6-----5--2-2-3-3-|-2------6-----5----2-2-|
|
|   Gtr II
|               PM----|                     PM|
|   H.          S S S S   E E  H          E S S
||----------------------|-----------------------|
||o---------------------|-----------------------|
||----------------------|-----------------------|
||----------------------|-----------------------|
||o---------------------|-----------------------|
||--------------2-2-3-3-|-2-----------------2-2-|


  PM----|                      PM----|         PM|
  S S S S E E.   E. E. S   +E  S S S S E E. E. S S
|------------------------|--------------------------||
|------------------------|-------------------------o||
|------------------------|--------------------------||
|-----------1-------0----|---------------1----------||
|-----------1----4--0--3-|-(3)-----------1--4------o||
|-3-3-2-2-1------4-----3-|-(3)-1-1-2-2-1----4--0-0--||
|
| PM----|                      PM----|         PM|
| S S S S E E  H            E  S S S S E Q.    S S
|------------------------|--------------------------||
|------------------------|-------------------------o||
|------------------------|--------------------------||
|------------------------|--------------------------||
|------------------------|-------------------------o||
|-3-3-2-2-1--------------|-----1-1-2-2-1-------0-0--||


                PM----|             PM------|                  PM--|
    E. E. E. E. E E   E E. E. E. E. E   E E E E. E. E. S   +E  E E E E. E. E
||------------------|-----------------|------------------|--------------------||
||o-----------------|-----------------|------------------|-------------------o||
||------------------|-----------------|------------------|--------------------||
||--3-----2---------|---3-----2-------|-------1-----0----|-----------1-----0--||
||o-3--6--2--5--2-3-|-2-3--6--2--5--2-|-3-2-1-1--4--0--3-|-(3)-1-2-1-1--4--0-o||
||-----6-----5--2-3-|-2----6-----5--2-|-3-2-1----4-----3-|-(3)-1-2-1----4-----||


 Breakdown 1
  Gtr III
  W           Q   E E +E  E +E  E   +W            W
|----------|--------------------0-|-(0)--------|--------|
|----------|--------------6-(6)---|------------|--------|
|----------|--------5-(5)---------|------------|--------|
|----------|----------------------|------------|--------|
|----------|----------------------|------------|--------|
|----------|----------------------|------------|--------|
|
| Gtr II
| W          +W                     +W           +W
|----------|----------------------|------------|--------|
|----------|----------------------|------------|--------|
|----------|----------------------|------------|--------|
|----------|----------------------|------------|--------|
|-0--------|-(0)------------------|-(0)--------|-(0)----|
|-0--------|-(0)------------------|-(0)--------|-(0)----|


  Gtr I
   W               +W                      +W           W
|-10------------|-(10)------------------|-(10)--------|------|
|-13pb15r=======|=(13)------------------|-(13)--------|------|
|---------------|-----------------------|-------------|------|
|---------------|-----------------------|-------------|------|
|---------------|-----------------------|-------------|------|
|---------------|-----------------------|-------------|------|
|
| Gtr III
|                                                       PM
|  W                Q   E E +E  E +E  E    +W           W
|---------------|---------0-(0)---------|-------------|------|
|---------------|---------------6-(6)---|-------------|------|
|---------------|---------------------5-|--(5)--------|------|
|---------------|-----------------------|-------------|------|
|---------------|-----------------------|-------------|-0----|
|---------------|-----------------------|-------------|-0----|
|
| Gtr II
|                                                       PM
|  W               +W                      +W           W
|---------------|-----------------------|-------------|------|
|---------------|-----------------------|-------------|------|
|---------------|-----------------------|-------------|------|
|---------------|-----------------------|-------------|------|
|--0------------|--(0)------------------|--(0)--------|-0----|
|--0------------|--(0)------------------|--(0)--------|-0----|


    Gtr I
    PM      PM        PM      PM--------|
    E. E. E E. E. E   E. E. E S E  S E  E
||------------------|---------------------|
||o-----------------|---------------------|
||------------------|---------------------|
||------------------|---------------------|
||o-0--0h=1-0--0h=1-|-0--0h=1-------------|
||--0--0h=1-0--0h=1-|-0--0h=1-0-0--0-0--0-|
|
|   Gtr II
|   PM      PM        PM      PM--------|
|   E. E. E E. E. E   E. E. E S E  S E  E
||------------------|---------------------|
||o-----------------|---------------------|
||------------------|---------------------|
||-----7-/8----7-/8-|----7-/8-------------|
||o----5-/6----5-/6-|----5-/6-------------|
||--0-------0-------|-0-------0-0--0-0--0-|


        PM      PM        PM-------------|
  E. E. E E. E. E   E. E. S E  S E  S E  S
|-----------------|-------------------------|
|-----------------|-------------------------|
|-----------------|-------------------------|
|-----------------|-------------------------|
|-0h=1--0-0h=1--0-|-0h=1--------------------|
|-0h=1--0-0h=1--0-|-0h=1--0-0--0-0--0-0--0--|
|
|       PM      PM        PM-------------|
| E. E. E E. E. E   E. E. S E  S E  S E  S
|-----------------|-------------------------|
|-----------------|-------------------------|
|-----------------|-------------------------|
|-7-/8----7-/8----|-7-/8--------------------|
|-5-/6----5-/6----|-5-/6--------------------|
|-------0-------0-|-------0-0--0-0--0-0--0--|


  PM      PM        PM      PM--------|
  E. E. E E. E. E   E. E. E S E S E S S
|-----------------|---------------------|
|-----------------|---------------------|
|-----------------|---------------------|
|-----------------|---------------------|
|-0--0h=1-0--0h=1-|-0--0h=1-------------|
|-0--0h=1-0--0h=1-|-0--0h=1-0-0-0-0-0-0-|
|
| PM      PM        PM      PM------|
| E. E. E E. E. E   E. E. E S E S E S S
|-----------------|---------------------|
|-----------------|---------------------|
|-----------------|---------------------|
|----7-/8----7-/8-|----7-/8-------------|
|----5-/6----5-/6-|----5-/6-------------|
|-0-------0-------|-0-------0-0-0-0-0-0-|


      PM     PM                  PM|
  +E  E E  E E. E. E    E. E. E. S S E. E
|--------------------|---------------------||
|--------------------|--------------------o||
|--------------------|-10--7--8------4--5--||
|--------------------|---------------------||
|-----0-0h=1-0--0h=1-|--8--5--6------2--3-o||
|-(0)-0-0h=1-0--0h=1-|-----------0-0-------||
|
|     PM     PM                  PM|
| +E  E E  E E. E. E    E. E. E. S S E. E
|--------------------|---------------------||
|--------------------|--------------------o||
|--------------------|-10--7--8------4--5--||
|-------7-/8----7-/8-|---------------------||
|-------5-/6----5-/6-|--8--5--6------2--3-o||
|-(0)-0------0-------|-----------0-0-------||


                  Dm7add9
  Gtr I
  |-3-| |-3-|
  Q Q Q Q Q Q     Q   H.
|---------------|---------------|
|---------------|---------------|
|-7-7-7-7-7-7---|-7-------------|
|---------------|---------------|
|-5-5-5-5-5-5---|-5-------------|
|---------------|---------------|
|
| Gtr III
|                 |--3---|
| W               Q Q    Q H
|---------------|----------0----|
|---------------|--------6------|
|---------------|---5-----------|
|---------------|-0-------------|
|---------------|---------------|
|---------------|---------------|


 Solo - Tony
  Gtr I
           /1\
           ~~~~
   E.      E.       E    Q.            +E
|-----------------------13------------(13)---|
|------------------10------------------------|
|-12------12---------------------------------|
|--------------------------------------------|
|--------------------------------------------|
|--------------------------------------------|
|
| Gtr II
|              PM|            PM-----------|
|  S  S S  S   S S  S S  S  S S S S S   S  S
|--------------------------------------------|
|--------------------------------------------|
|--------------------------------------------|
|--------------------------------------------|
|--5--3-0--6--------5-3--0--6----------------|
|--------------0-0------------0-0-0-0---0--0-|


           /1\
           ~~~~
   E.      E.       E    Q.            +E
|-----------------------15------------(15)---|
|------------------10------------------------|
|-13------13---------------------------------|
|--------------------------------------------|
|--------------------------------------------|
|--------------------------------------------|
|
|              PM|            PM-----------|
|  S  S S  S   S S  S S  S  S S S S S   S  S
|--------------------------------------------|
|--------------------------------------------|
|--------------------------------------------|
|--------------------------------------------|
|--5--3-0--6--------5-3--0--6----------------|
|--------------0-0------------0-0-0-0---0--0-|


           /1\
           ~~~~                                                     ~~~~~
   E.      E.       E    Q.            +E       H                  +H
|-----------------------16------------(16)---|--------------------------------|
|------------------10------------------------|--------------------------------|
|-14------14---------------------------------|-<5>b7--------------(<5>)-------|
|--------------------------------------------|--------------------------------|
|--------------------------------------------|--------------------------------|
|--------------------------------------------|--------------------------------|
|
|  PM----------------------------------------------------------------------|
|  S  S S  S   S S  S S  S  S S S S S   S  S    S    S S  S S S E   E    E Q
|--------------------------------------------|--------------------------------|
|--------------------------------------------|--------------------------------|
|--------------------------------------------|--------------------------------|
|--------------------------------------------|----------------------3---/5----|
|--6--5-0--8--------6-5--0--8----------------|--8----6-0-10-----5----------6--|
|--------------0-0------------0-0-0-0---0--0-|--------------0-0---------------|


   ~~~~~
   H.                          E       +E
|-10--------------------------10------(10)---|
|-13b15-----------------------13b15r==(13)---|
|--------------------------------------------|
|--------------------------------------------|
|--------------------------------------------|
|--------------------------------------------|
|
|             PM|         PM---------------|
|  S    S S S S S S S S S S S  S    S   S  S
|--------------------------------------------|
|--------------------------------------------|
|--------------------------------------------|
|--------------------------------------------|
|--5----3-0-6-----5-3-0-6--------------------|
|-------------0-0---------0-0--0----0---0--0-|


   H.                          +E     E
|-10--------------------------(10)--------|
|-12b13r======================(12)--------|
|-----------------------------------------|
|------------------------------------12---|
|-----------------------------------------|
|-----------------------------------------|
|
|             PM|         PM------------|
|  S    S S S S S S S S S S S   S  S  S S
|-----------------------------------------|
|-----------------------------------------|
|-----------------------------------------|
|-----------------------------------------|
|--5----3-0-6-----5-3-0-6-----------------|
|-------------0-0---------0-0---0--0--0-0-|


                              ~~~~
   S  S  S  S  S  S   S   S  +H
|----------------------------------------------|
|----------------------------------------------|
|-14----14----14----(14)-13-(13)---------------|
|----12----12----12----------------------------|
|----------------------------------------------|
|----------------------------------------------|
|
|  PM-------------------------------------------
|  S  S  S  S  S  S   S   S   S  S S S S S S S
|----------------------------------------------|
|----------------------------------------------|
|----------------------------------------------|
|----------------------------------------------|
|--6--5--0--8---------6---5---0--8-------------|
|--------------0--0----------------0-0-0-0-0-0-|


                         ~~~~
   |------3-------|
   E       +E     E     +H.
|---------------------------------------|
|---------------------------------------|
|-12b14---(12)p==10----(10)-------------|
|---------------------------------------|
|---------------------------------------|
|---------------------------------------|
|
|------------------------------------|
|  S    S      S     S   S  S E E  E Q
|---------------------------------------|
|---------------------------------------|
|---------------------------------------|
|-------------------------------3-/5----|
|--8----6------0----10--------5------6--|
|------------------------0--0-----------|


  |-------6-------| |-------6-------| |-------6-------| |-------6-------|
  S S    S S S    S S S    S S S    S S S    S S S    S S S    S S S    S
|-------------------------------------------------------------------------|
|-------------------------------------------------------------------------|
|-------------------7h8h==11-------------------7h8h==11-------------------|
|----------7h8h==11-------------------7h8h==11-------------------7h8h==11-|
|-7h8h==11-------------------7h8h==11-------------------7h8h==11----------|
|-------------------------------------------------------------------------|
|
|                   PM--|                      PM--------------------|
| S   S    S   S    S   S    S   S    S   S    S   S    S   S    S   S
|-------------------------------------------------------------------------|
|-------------------------------------------------------------------------|
|-------------------------------------------------------------------------|
|-------------------------------------------------------------------------|
|-5---3----0---6-------------5---3----0---6-------------------------------|
|-------------------0---0----------------------0---0----0---0----0---0----|


  |-------6-------| |------5-------|
  S S    S S S    S S S    S   S   S  E   E   +Q
|-------------------7h8h==11p==8p==7-10-------------------|
|----------7h8h==11-----------------------9---(9)---------|
|-7h8h==11------------------------------------------------|
|---------------------------------------------------------|
|---------------------------------------------------------|
|---------------------------------------------------------|
|
|                   PM--|                 PM----------|
| S   S    S   S    S   S    S   S    S S S S  S  S S S
|---------------------------------------------------------|
|---------------------------------------------------------|
|---------------------------------------------------------|
|---------------------------------------------------------|
|-5---3----0---6-------------5---3----0-6-----------------|
|-------------------0---0-----------------0-0--0--0-0-0---|


                    ~~~
  |-----3------|                     |-----3-----|
  E      +E    E   +H                E     +E    E
|----------------------------------------------------|
|-8b10r==(8)p==6---(6)---------------5b7r==(5)p==3---|
|----------------------------------------------------|
|----------------------------------------------------|
|----------------------------------------------------|
|----------------------------------------------------|
|
| PM--------------------------------------------------
| S    S     S   S  S  S S S S S S S S   S     S   S
|----------------------------------------------------|
|----------------------------------------------------|
|----------------------------------------------------|
|----------------------------------------------------|
|-6----5-----0---8-------6-5-0-8---------------------|
|-------------------0--0---------0-0-0---0-----0---0-|


  E.      E.     E.    E.    +Q
|---------------------------------|
|-4------/4------4----/4-----(4)--|
|---------------------------------|
|---------------------------------|
|---------------------------------|
|---------------------------------|
|
|----------------------------|
| S  S S  S  S S E  E      E  Q
|---------------------------------|
|---------------------------------|
|---------------------------------|
|-------------------3-----/5------|
|-8--6-0-10------5------------6---|
|------------0-0------------------|


   |----3-----|    |----3-----|    |----3-----|    |---3----|
   E     E    E    E    E     E    E     E    E    E    E   E
|-----------------13------------------------------11---10-------|
|------------12--------12---\11--------------10-----------------|
|-14---/15------------------------14---\13----------------------|
|---------------------------------------------------------------|
|---------------------------------------------------------------|
|---------------------------------------------------------------|
|
|                  PM|                     PM-----------------|
|  S S     S    S  S S    S     S  S S     S    S  S S    S   S
|---------------------------------------------------------------|
|---------------------------------------------------------------|
|---------------------------------------------------------------|
|---------------------------------------------------------------|
|--5-3-----0----6---------5-----3--0-6--------------------------|
|------------------0-0---------------------0----0--0-0----0---0-|


   S  S  S S  S S S S S  S S S E E
|--------------------------------------|
|-10h13p10-9h10p9-8h9p8----------------|
|-----------------------10-9-8-7-------|
|--------------------------------------|
|--------------------------------------|
|--------------------------------------|
|
|             PM|          PM--------|
|  S  S  S S  S S S S S  S S S S S S S
|--------------------------------------|
|--------------------------------------|
|--------------------------------------|
|--------------------------------------|
|--5--3--0-6------5-3-0--6-------------|
|-------------0-0----------0-0-0-0-0-0-|


 Breakdown 2
                              ~~
   W                          W
|--------------------------|----------------------|
|-13-----------------------|----------------------|
|-12pb14r==================|=10-------------------|
|--------------------------|----------------------|
|--------------------------|----------------------|
|--------------------------|----------------------|
|
|  PM----------------------------------------------
|  E     S E S E S E S E E    E S E S E S E S E E
|--------------------------|----------------------|
|--------------------------|----------------------|
|--------------------------|----------------------|
|--------------------------|----------------------|
|--0-------0---0---0---3-5-|--3---0---0---0---3-5-|
|--0-------0---0---0---3-5-|--3---0---0---0---3-5-|


                                 ~~~
                      |--3--|
   H.                 E  E  E    W
|-----------------------------|-------------------|
|-15pb18r============13-15----|-13----------------|
|--------------------------14-|-------------------|
|-----------------------------|-------------------|
|-----------------------------|-------------------|
|-----------------------------|-------------------|
|
|------------------|
|  E     S E S E S E  S  E  E    E. E. E. E. E. S
|-----------------------------|-------------------|
|-----------------------------|-------------------|
|-----------------------------|-10--7--8--4--5----|
|-----------------------------|-------------------|
|--3-------1---1---1-----1--1-|--8--5--6--2--3----|
|--3-------1---1---1-----1--1-|-------------------|


    PM-----------------------------------------
    E S E S E S E S E E   E S E S E S E S E E
||----------------------|---------------------|
||o---------------------|---------------------|
||----------------------|---------------------|
||----------------------|---------------------|
||o-0---0---0---0---3-5-|-3---0---0---0---3-5-|
||--0---0---0---0---3-5-|-3---0---0---0---3-5-|
|
|   PM-----------------------------------------
|   E S E S E S E S E E   E S E S E S E S E E
||----------------------|---------------------|
||o---------------------|---------------------|
||----------------------|---------------------|
||----------------------|---------------------|
||o-0---0---0---0---3-5-|-3---0---0---0---3-5-|
||--0---0---0---0---3-5-|-3---0---0---0---3-5-|


 -------------|
  E S E S E S E S E E    E. E. E. E. E. S   3x
|---------------------|---------------------||
|---------------------|--------------------o||
|---------------------|-----------4--5------||
|---------------------|---------------------||
|-3---1---1---1---1-1-|--3--0--1--2--3-----o||
|-3---1---1---1---1-1-|--3--0--1------------||
|
|-------------|
| E S E S E S E S E E    E. E. E. E. E. S   3x
|---------------------|---------------------||
|---------------------|--------------------o||
|---------------------|-10--7--8--4--5------||
|---------------------|---------------------||
|-3---1---1---1---1-1-|--8--5--6--2--3-----o||
|-3---1---1---1---1-1-|---------------------||


   Chorus
                PM----|             PM------|                  PM--|
    E. E. E. E. E E   E E. E. E. E. E   E E E E. E. E. S   +E  E E E E. E. E
||------------------|-----------------|------------------|--------------------||
||o-----------------|-----------------|------------------|-------------------o||
||------------------|-----------------|------------------|--------------------||
||--3-----2---------|---3-----2-------|-------1-----0----|-----------1-----0--||
||o-3--6--2--5--2-3-|-2-3--6--2--5--2-|-3-2-1-1--4--0--3-|-(3)-1-2-1-1--4--0-o||
||-----6-----5--2-3-|-2----6-----5--2-|-3-2-1----4-----3-|-(3)-1-2-1----4-----||


 Outro
  Gtr I
   E.  E.  E. E. E. S    E.  E.  E. E. E. S
|---------------------|---------------------|
|---------------------|---------------------|
|-10---7---8--4--5----|-10---7---8--4--5----|
|---------------------|---------------------|
|--8---5---6--2--3----|--8---5---6--2--3----|
|---------------------|---------------------|
|
| Gtr II
|  E.  E.  E. E. E. S    E.  E.  E. E. E. S
|---------------------|---------------------|
|---------------------|---------------------|
|-13--10--11--7--8----|-13--10--11--7--8----|
|---------------------|---------------------|
|-11---8---9--5--6----|-11---8---9--5--6----|
|---------------------|---------------------|


                       3/4
                        PM-------|
   E.  E.  E. E. E. S   E. E. E. E.
|---------------------|-------------|
|---------------------|-------------|
|-10---7---8--4--5----|-------------|
|---------------------|-6--5--4--3--|
|--8---5---6--2--3----|-4--3--2--1--|
|---------------------|-6--5--4--3--|
|
|                       PM-------|
|  E.  E.  E. E. E. S   E. E. E. E.
|---------------------|-------------|
|---------------------|-------------|
|-13--10--11--7--8----|-------------|
|---------------------|-6--5--4--3--|
|-11---8---9--5--6----|-4--3--2--1--|
|---------------------|-6--5--4--3--|


   4/4
     H.                        Q         H.                       Q
||-------------------------------------|----------------------------------|
||o-10------------------------10-------|-9------------------------9-------|
||-------------------------------------|----------------------------------|
||---7-------------------------7-------|-6------------------------6-------|
||o------------------------------------|----------------------------------|
||-------------------------------------|----------------------------------|
|
|    PM-----------------------------------------------------------------|
|    S  S S S S S S S S S S S  S S S S   S  S S S S S S S S S S S S S S S
||-------------------------------------|----------------------------------|
||o------------------------------------|----------------------------------|
||-------------------------------------|----------------------------------|
||-------------------------------------|----------------------------------|
||o------------------------------------|----------------------------------|
||---0--0-0-0---0-0-0-0---0-0--0-0---0-|-0--0-0-0---0-0-0-0---0-0-0-0---0-|


   W                                  +W
|----------------------------------|------------------------------------|
|-13-------------------------------|-(13)-------------------------------|
|----------------------------------|------------------------------------|
|-10-------------------------------|-(10)-------------------------------|
|----------------------------------|------------------------------------|
|----------------------------------|------------------------------------|
|
|  PM-----------------------------------------------------------------|
|  S S S S S S S S S S S S S S S S     S  S S S S S S S S S S S S S S S
|----------------------------------|------------------------------------|
|----------------------------------|------------------------------------|
|----------------------------------|------------------------------------|
|----------------------------------|------------------------------------|
|----------------------------------|------------------------------------|
|--0-0-0-0---0-0-0-0---0-0-0-0---0-|---0--0-0-0---0-0-0-0---0-0-0-0---0-|


  S  S E   +E    S  S Q       S  S E     S  S E   +E    S  S Q       S  S E
|--------------------------------------|--------------------------------------|
|--------------------------------------|--------------------------------------|
|-9S10S9---(9)---9S10S9-------9S10S9---|-9S10S8---(8)---8S10S8-------8S10S8---|
|--------------------------------------|--------------------------------------|
|-7S=8S7---(7)---7S=8S7-------7S=8S7---|-7S=8S6---(6)---6S=8S6-------6S=8S6---|
|--------------------------------------|--------------------------------------|
|
| PM------------------------------------------------------------------------|
| S  S S S  S  S S  S S S S S S  S S S   S  S S S  S  S S  S S S S S S  S S S
|--------------------------------------|--------------------------------------|
|--------------------------------------|--------------------------------------|
|--------------------------------------|--------------------------------------|
|--------------------------------------|--------------------------------------|
|--------------------------------------|--------------------------------------|
|-2--2-2-2-----2-2--2-2---2-2-2--2---2-|-1--1-1-1-----1-1--1-1---1-1-1--1---1-|


                                     1.
   W                                  +W
|----------------------------------|-------------------------------------||
|----------------------------------|------------------------------------o||
|-12-------------------------------|-(12)--------------------------------||
|----------------------------------|-------------------------------------||
|-10-------------------------------|-(10)-------------------------------o||
|----------------------------------|-------------------------------------||
|
|  PM-----------------------------------------------------------------|
|  S S S S S S S S S S S S S S S S     S  S S S S S S S S S S S S S S S
|----------------------------------|-------------------------------------||
|----------------------------------|------------------------------------o||
|----------------------------------|-------------------------------------||
|----------------------------------|-------------------------------------||
|----------------------------------|------------------------------------o||
|--5-5-5-5---5-5-5-5---5-5-5-5---5-|---5--5-5-5---5-5-5-5---5-5-5-5---5--||


  2.
           PM|
  E. E. E. S S E. E
|----------------------*|
|----------------------*|
|--------------4--5----*|
|-3--0--1------4--4----*|
|-3--0--1------2--3----*|
|-3--0--1--0-0---------*|
|
|          PM|
| E. E. E. S S E. E
|----------------------*|
|----------------------*|
|--------------4--5----*|
|-3--0--1------4--4----*|
|-3--0--1------2--3----*|
|-3--0--1--0-0---------*|



Duration Legend
---------------
W - whole; H - half; Q - quarter; E - 8th; S - 16th; T - 32nd; X - 64th; a - acciaccatura
+ - note tied to previous; . - note dotted; .. - note double dotted
Uncapitalized letters represent notes that are staccato (1/2 duration)
Irregular groupings are notated above the duration line
Duration letters will always appear directly above the note/fret number it represents the
duration for.  Duration letters with no fret number below them represent rests.  Multi-
bar rests are notated in the form Wxn, where n is the number of bars to rest for.  Low
melody durations appear below the staff

Tablature Legend
----------------
 h   - hammer-on
 p   - pull-off
 b   - bend
 pb  - pre-bend
 r   - bend release (if no number after the r, then release immediately)
 /\  - slide into or out of (from/to "nowhere")
 s   - legato slide
 S   - shift slide
 - natural harmonic
[n]  - artificial harmonic
n(n) - tapped harmonic
 ~   - vibrato
 tr  - trill
 T   - tap
 TP  - trem. picking
 PM  - palm muting
\n/  - tremolo bar dip; n = amount to dip
 \n  - tremolo bar down
 n/  - tremolo bar up
/n\  - tremolo bar inverted dip
 =   - hold bend; also acts as connecting device for hammers/pulls
 <> - volume swell (louder/softer)
 x   - on rhythm slash represents muted slash
 o   - on rhythm slash represents single note slash

Misc Legend
-----------
 |  - bar
||  - double bar
||o - repeat start
o|| - repeat end
*|  - double bar (ending)
 :  - bar (freetime)
 $  - Segno
 &  - Coda
Tempo markers -  = BPM(8/16=s8/s16), where s8 = swing 8ths, s16 = swing 16ths

Добавлено: 26.04.2012
Другие материалы по этой песне:

Страница создана 10.04.2012
http://primanota.ru/byzantine/five-faces-of-madness-chords.htm
Привет, Гость.
Предлагаем пройти революционный курс по гитаре.
Подарок от PrimaNota.Ru, забирай!