PrimaNota.ru - самый крупный в мире бесплатный архив песенных текстов, аккордов, табулатур и нот


Byrdman - Sand Song - аккорды и текст, видео

Регистрация Запомнить меня
Войти через:  Facebook Google Twitter Vk Yandex Mail.ru

Byrdman - Sand Song - аккорды и текст, видео

Печатать
Просмотров: 138
Sand Song
Byrdman
-------------------------------------------------------------------------------
                             SAND SONG - Byrdman
-------------------------------------------------------------------------------
Tabbed by: The man himself!
E-mail: jackpdavid@aol.com

Tuning: Standard (EADGBe)
CAPO 3

INTRO:
e|----5-------5-------5-------5-------5-------5-------5-------5-------5------|
B|--6---6---6---6---6---6---6---6---6---6---6---6---6---6---6---6---6---6----|
G|5-------5-------5-------5-------5-------3-------3-------3-------3----------|
D|---------------------------------------------------------------------------|
A|---------------------------------------------------------------------------|
E|---------------------------------------------------------------------------|
                                                                                x2
e|----3-------3-------3-------3-------3-------3-------5-------6--------------|
B|--6---6---6---6---6---6---6---6---6---6---6---6---6---6---6---6------------|
G|7-------7-------7-------7-------3-------3-------3-------3-------REPEAT-1x--|
D|---------------------------------------------------------------------------|
A|---------------------------------------------------------------------------|
E|---------------------------------------------------------------------------|

POST PICKING: 
D G x4
                   D
Trapped on this island.
                     G 
Our plane's in the ocean, nowhere to go. 
                 D
But we'll be alright.
               G 
Let's build a fire. 
           Em                    G
So why do you care if I stay or if I go?
    D           A               D 
I can't go too far, I can't go home. 

D
  
        D                          G       
It's nothing, I can tell you that much.
               D                        G 
Okay, it's something, but I can't tell you what.
        D                                   G 
It's a sand trap, and we'll throw ourselves at it.
          D                                         G 
It's an arrow to my temple and you're pulling back the bow. 
              Em                   G
But why should I care if you take my life?
     D                A                    D 
I'm not too proud to die if I die next to you.

************************************

| /   slide up
| \   slide down
| h   hammer-on
| p   pull-off
| ~   vibrato
| +   harmonic
| x   Mute note
| b   Bend
| pb  Pre-bend
| br  Bend release
| pbr Pre-bend release
| brb Bend release bend

************************************
Добавлено: 25.07.2015
Другие материалы по этой песне:
  • Аккорды и текст

Страница создана 25.07.2015
http://primanota.ru/byrdman/sand-song-chords.htm
Привет, Гость.
Предлагаем пройти революционный курс по гитаре.
Подарок от PrimaNota.Ru, забирай!