PrimaNota.ru - самый крупный в мире бесплатный архив песенных текстов, аккордов, табулатур и нот


Byrdman - Giving Up Interlude - таба, видео

Регистрация Запомнить меня
Войти через:  Facebook Google Twitter Vk Yandex Mail.ru

Byrdman - Giving Up Interlude - таба, видео

Печатать
Просмотров: 96
Уроки эстрадного вокала в Санкт-Петербурге
-------------------------------------------------------------------------------
                             GIVING UP (INTERLUDE) - Byrdman
-------------------------------------------------------------------------------
Tabbed by: The man himself!
E-mail: jackpdavid@aol.com

Tuning: Standard (EADGBe)
Cmaj7 (The major picking, i.e. "I Don't...")
e|---------------------------------------------------------------------------|
B|--------0-0-------------0-0------------0-0-------------0-0-----------------|
G|--------------0--------------0---------------0---------------0-------------|
D|----2-------2-------2-------2------2-------2-------2-------2---------------|
A|3-3---3---------3-3---3--------3-3---3---------3-3---3---------------------|
E|---------------------------------------------------------------------------|

Asus2 (The minor picking, i.e. "...Care...")
e|--------------0---------------0---------------0---------------0------------|
B|------------0---------------0---------------0---------------0--------------|
G|--------2---------------2---------------2---------------2------------------|
D|----2-----2---------2-----2---------2-----2---------2-----2----------------|
A|0-0---0---------0-0---0---------0-0---0---------0-0---0--------------------|
E|---------------------------------------------------------------------------|

End by strumming Cmaj7

************************************

| /   slide up
| \   slide down
| h   hammer-on
| p   pull-off
| ~   vibrato
| +   harmonic
| x   Mute note
| b   Bend
| pb  Pre-bend
| br  Bend release
| pbr Pre-bend release
| brb Bend release bend

************************************
Добавлено: 20.12.2015
Другие материалы по этой песне:
  • Аккорды и текст

Страница создана 20.12.2015
http://primanota.ru/byrdman/giving-up-interlude-chords.htm
Привет, Гость.
Предлагаем пройти революционный курс по гитаре.
Подарок от PrimaNota.Ru, забирай!