PrimaNota.ru - самый крупный в мире бесплатный архив песенных текстов, аккордов, табулатур и нот


Byrdman - Friends - аккорды и текст, видео

Регистрация Запомнить меня
Войти через:  Facebook Google Twitter Vk Yandex Mail.ru

Byrdman - Friends - аккорды и текст, видео

Печатать
Просмотров: 129
Friends
Byrdman
-------------------------------------------------------------------------------
                             FRIENDS - Byrdman
-------------------------------------------------------------------------------
Tabbed by: The man himself!
E-mail: jackpdavid@aol.com

Tuning: Standard (EADGBe)

Hey guys! This is Jack, I play guitar and sing for this band. 

Here are the chords/tab for the song Friends! This song is heavily palm muted and very straight forward.

CHORDS:
A (x0222x)
B (x2444x)
Db(x4666x)

GUITAR ONE:
e|x-xx-xxx-x-xx-xxx-x-xx-xxx-x-xx-xxx----------------------------------------|
B|2-22-222-4-44-444-6-66-666-4-44-444----------------------------------------|
G|2-22-222-4-44-444-6-66-666-4-44-444----------------------------------------|    x infinity
D|2-22-222-4-44-444-6-66-444-4-44-444----------------------------------------|
A|0-00-000-2-22-222-4-44-444-2-22-222----------------------------------------|
E|x-xx-xxx-x-xx-xxx-x-xx-xxx-x-xx-xxx----------------------------------------|


Lead guitar is a little more hectic, you're gonna have to do some homework on the song for this to make sense.

GUITAR TWO:
"I just wish that I were someone else"
e|5-5-5-7-5-7-9-7-9-12-10-9--------------------------------------------------|
B|---------------------------------------------------------------------------|
G|---------------------------------------------------------------------------|   
D|---------------------------------------------------------------------------|
A|---------------------------------------------------------------------------|
E|---------------------------------------------------------------------------|
"And decay..."
e|7-5-2-0--------------------------------------------------------------------|
B|--------2-pause-3-0h2-5-2--------------------------------------------------|
G|---------------------------------------------------------------------------|   
D|---------------------------------------------------------------------------|
A|---------------------------------------------------------------------------|
E|---------------------------------------------------------------------------|
"Damned myself to Hell..."
e|12-14-12-9-10-7-9-7-5-7-5-7/9-pause-12-10-9--------------------------------|
B|---------------------------------------------------------------------------|
G|---------------------------------------------------------------------------|   
D|---------------------------------------------------------------------------|
A|---------------------------------------------------------------------------|
E|---------------------------------------------------------------------------|
"There's nothing to say"
e|10-9-7-9-10-9----12-9-----7-9-10-12----------------------------------------|
B|---------------------------------------------------------------------------|
G|---------------------------------------------------------------------------|   
D|---------------------------------------------------------------------------|
A|---------------------------------------------------------------------------|
E|---------------------------------------------------------------------------|

e|5-5-5-7-5-7-9-9-9-12-10-9-9-9-9-10-9-7-5-7-5-9-9-9-12-12-12-17---19---21---|
B|---------------------------------------------------------------------------|
G|---------------------------------------------------------------------------|   
D|---------------------------------------------------------------------------|
A|---------------------------------------------------------------------------|
E|---------------------------------------------------------------------------|

e|19-17-14-12-10-9-7-9-7-5-7-5-2-0----------5-5-5-5-7-7-7-7-9-9-9-9-7-7-7-7-5|
B|---------------------------------------------------------------------------|
G|---------------------------------------------------------------------------|   
D|---------------------------------------------------------------------------|
A|---------------------------------------------------------------------------|
E|---------------------------------------------------------------------------|

************************************

| /   slide up
| \   slide down
| h   hammer-on
| p   pull-off
| ~   vibrato
| +   harmonic
| x   Mute note
| b   Bend
| pb  Pre-bend
| br  Bend release
| pbr Pre-bend release
| brb Bend release bend

************************************
Добавлено: 25.07.2015
Другие материалы по этой песне:
  • Аккорды и текст

Страница создана 25.07.2015
http://primanota.ru/byrdman/friends-chords.htm
Привет, Гость.
Предлагаем пройти революционный курс по гитаре.
Подарок от PrimaNota.Ru, забирай!