PrimaNota.ru - самый крупный в мире бесплатный архив песенных текстов, аккордов, табулатур и нот


Bye Sami - Un Amigo Mas - таба, видео

Регистрация Запомнить меня
Войти через:  Facebook Google Twitter Vk Yandex Mail.ru

Bye Sami - Un Amigo Mas - таба, видео

Печатать
Просмотров: 110
Intro:
Guitarra 1:
e|-----------------|
b|-----------------|
G|°-44-3-44-3-4-3-°|
D|°-xx-x-xx-x-x-x-°|   x9
A|--22-1-22-1-2-1--|
E|-----------------|

Guitarra 2: B5 F#5 D#5 G#5   X2

Gutarra 1:
e|------------------------------------------------------------------------------------|
b|------------------------------------------------------------------------------------|
G|--9-8--9-8-11-9-8-9----9-8---9-8-11-9-8-9-9-8---9-8-11-9-8-9-----9-8---9-8-11-9-8-9-|
D|-9----9---------------------------------11----11----------------9----9--------------|
A|---------------------11----11-------------------------------------------------------|
E|------------------------------------------------------------------------------------|

Guitarra 2: B5 G#5 C#5 F#5

Verso: x4
Guirarra 1:
e|------------------|
b|------------------|
G|-6--9/11--8-------|
D|-x--x/x---x--6--4-|
A|-4--7/9---6--6--4-|
E|-------------4--2-|

Guitarra 2: B5 F#5 D#5 G#5


Pre-coro: x1
Guitarra 1 y 2:
e|--------------------|
b|--------------------|
G|-------4/6----------|
D|-2--4--4/x--6--2--4-|
A|-2--4--2/4--6--2--4-|
E|-0--2-------4--0--2-|


Coro: x2
Guitarra 1 y 2:
e|------------|
b|------------|
G|-4----------|
D|-4--4--6--2-|
A|-2--4--6--2-|
E|----2--4--0-|


Intro


Verso:
Guitarra 1:
e|-----------------------|
b|-----------------------|
G|-6-9/11-11-11\8-8/11---|
D|-x-x/x--x--x-\x-x/x----|
A|-4-7/9--9--9-\6-6/9----|
E|-----------------------|

cont...
---------------------------------------------------------------------|
---------------------------------------------------------------------|
-9-8---9-8---9-8-9-8---9-8---9-8-11-11-11-9-9-9-8-9-11-11-11-9-9-9-8-| x2
-----9-----9---------9-----9-----------------------------------------|
---------------------------------------------------------------------|
---------------------------------------------------------------------|

Guitarra 2:
e|------------------------------------------------------------|
b|------------------------------------------------------------|
G|---7/9-99----------------------------------11-11-11-9-9-9-8-|
D|-9-x/x-xx--9-9-9-9-9-8-9-9-9-9-9-8-9-9-9-9------------------|
A|-x-5/7-77--x-x-x-x-x-x-x-x-x-x-x-x-x-x-x-x------------------|
E|-7---------7-7-7-7-7-6-7-7-7-7-7-6-7-7-7-7------------------|
             P.M............................
Cont...
----------------------------------------------------------------|
----------------------------------------------------------------|
----------------------------------------------------------------|
-9-9-9-9-9-9-9-8-9-9-9-9-9-9-9-8-9-9-9-9-9-9-9-8-9-9-9-9-9-9-9--|
-x-x-x-x-x-x-x-x-x-x-x-x-x-x-x-x-x-x-x-x-x-x-x-x-x-x-x-x-x x-x--|
-7-7-7-7-7-7-7-6-7-7-7-7-7-7-7-6-7-7-7-7-7-7-7-6-7-7-7-7-7-7-7--|
   P.M..........................................................
Cont...
-------------------|
-------------------|
-11-11-11-9-9-9-8--|
-------------------|
-------------------|
-------------------|


Pre-coro: x1

Coro: x3

Bridge:
Guitarra 1 y 2:
e|-------------|
b|-------------|
G|----4-----6--|    x2
D|-4--4--4--6--|
A|-4--2--4--4--|
E|-2-----2-----|

Guitarra 1:
e|----------------------------------------------------------------------|
b|----------------------------------------------------------------------|
G|-------------------------1010101010101010-99999999--------------------|
D|1010101010101010-99999999--------------------------9-10101010101010109|
A|----------------------------------------------------------------------|
E|----------------------------------------------------------------------|

Guitarra 2: pre-coro


Outro:
Guitarra 1:
e|------------------------------------------------|
b|------------------------------------------------|
G|-4-----8\7/8--------------4/6-----------4-------|
D|-4--4--x\x/x--6--4--2--4--4/x--6--2--4--4-------|
A|-2--4--6\5/6--6--4--2--4--2/4--6--2--4--2-------|
E|----2---------4--2--0--2-------4--0--2----------|
Cont...
---------------------------------------------------------|
---------------------------------------------------------|
-11-9-8---------99999999-888888-11-9-8---11-9-8-9--8-----|
--------9-8-9-8------------------------9--------------9--|
---------------------------------------------------------|
---------------------------------------------------------|

guitarra 2:
e|----------------------------------------------------------|
b|----------------------------------------------------------|
G|-4-----8\7/8--------------4/6-----------4-----8-----------|
D|-4--4--x\x/x--6--4--2--4--4/x--6--2--4--4--4--x--6--4--2--|
A|-2--4--6\5/6--6--4--2--4--2/4--6--2--4--2--4--6--6--4--2--|
E|----2---------4--2--0--2-------4--0--2-----2-----4--2--0--|
Добавлено: 21.07.2012
Другие материалы по этой песне:
  • Аккорды и текст

Страница создана 21.07.2012
http://primanota.ru/bye-sami/un-amigo-mas-chords.htm
Привет, Гость.
Предлагаем пройти революционный курс по гитаре.
Подарок от PrimaNota.Ru, забирай!