PrimaNota.ru - самый крупный в мире бесплатный архив песенных текстов, аккордов, табулатур и нот


Bye Sami - Otro Dia Mas - таба, видео

Регистрация Запомнить меня
Войти через:  Facebook Google Twitter Vk Yandex Mail.ru

Bye Sami - Otro Dia Mas - таба, видео

Печатать
Просмотров: 123
Intro:

   D   F#   Bm            A            D   F#   Bm            A
E|-----------------------------------------------------------------------|
A|-----------------------------------------------------------------------|
D|-----------------------------------------------------------------------|
G|-7-7-6--6-9-7-6-7-6-7--9-7-6-7-6-7-------------------------------------|
B|------------------------------------8-8-7-7-10-8-7-8-7-8--10-8-7-8-7-8-|
e|-----------------------------------------------------------------------|


   D                            F#
E|------------------------------------------------------------|
A|------------------------------------------------------------|
D|------------------------------------------------------------|
G|-7-6-7-9-7-6-7-7-6-7-9-7-6-7--------------------------------|
B|------------------------------8-7-8-10-8-7-8-8-7-8-10-8-7-8-|
e|------------------------------------------------------------|

    Bm                        A
E|------------------------------------------|
A|------------------------------------------|
D|------------------------------------------|
G|------------------------------------------|
B|--10---10--10--10---10--10----------------|
e|-----10--10-------10--10----10/12-10-9-10-|


D                 F#                             Bm
 Hoy es otro día más como cualquier otro día normal
                 A                           D
Hoy es otro día más, que no sé en donde andarás
                   F#                           Bm
Te quiero ir a buscar pero no sé por dónde empezar
                        A
Y a mis más de cien llamadas no has podido contestar

G       D                  Bm     A           G
  Creo saber cuál es la razón de tu desaparición
        D                  Bm   A
Perdóname, te hice sentir mal, no fue mi intención hacerlo


Puente 1:
   D                            F#
E|------------------------------------------------------------|
A|------------------------------------------------------------|
D|------------------------------------------------------------|
G|-7-6-7-9-7-6-7-7-6-7-9-7-6-7--------------------------------|
B|------------------------------8-7-8-10-8-7-8-8-7-8-10-8-7-8-|
e|------------------------------------------------------------|

    Bm                        A
E|------------------------------------------|
A|------------------------------------------|
D|------------------------------------------|
G|------------------------------------------|
B|--10---10--10--10---10--10----------------|
e|-----10--10-------10--10----10/12-10-9-10-|

D                      F#                           Bm
 Eres como una enfermedad, que no se puede fácil curar
                       A                         G
o como una profunda herida que es difícil de sanar

G        D                Bm     A           G
 Creo saber cuál es la razón de tu desaparición
        D                  Bm   A
Perdóname, te hice sentir mal, no fue mi intención hacerlo


Puente 2:(D F# Bm A)- (D C#m Bm A)


       G                          D
¿Por qué las cosas no son como solían ser ayer?
 Bm                        A
Cuando entre tú y yo todo marchaba muy bien
   G                   D                       Bm
/// Perdóname si yo alguna vez te hice sentir mal
                     A                   G
    No fue mi intención hacerte a ti llorar///


G                 D                              Bm
 Hoy es otro día más como cualquier otro día normal
                 A
Hoy es otro día más
G                   D                            Bm
 Te quiero ir a buscar pero no sé por dónde empezar
                        A
Y a mis más de cien llamadas


Final:
   D                            F#
E|----------------------------------------------------------|
A|----------------------------------------------------------|
D|----------------------------------------------------------|
G|-7-6--7-6--7-6--7-6--7-9-7-6--7-6--7-6--7-6--7-6--7-9-7-6-|
B|----------------------------------------------------------|
e|----------------------------------------------------------|

  Bm               A
E|----------------------------------------|
A|----------------------------------------|
D|----------------------------------------|
G|----------------------------------------|
B|-8-7--8-7--8-7--10-8-7--10-8-7--10-8-7--|
e|----------------------------------------|

   G              D     Bm                   A                    G
E|-----------------------------------------------------------------------|
A|-----------------------------------------------------------------------|
D|-----------------------------------------------------------------------|
G|-7--7-6--9-7-6---------------------------------------------------------|
B|---------------7/8--7--10-10-10----10--10---------------------------10-|
e|-------------------------------10----10----10/12-10-9--12-10-9--10-9---|
Добавлено: 08.04.2012
Другие материалы по этой песне:
  • Аккорды и текст

Страница создана 08.04.2012
http://primanota.ru/bye-sami/otro-dia-mas-chords.htm
Привет, Гость.
Предлагаем пройти революционный курс по гитаре.
Подарок от PrimaNota.Ru, забирай!