PrimaNota.ru - самый крупный в мире бесплатный архив песенных текстов, аккордов, табулатур и нот


By The End Of Tonight - Sleeping While Driving Prevents Old Age - таба, видео

Регистрация Запомнить меня
Войти через:  Facebook Google Twitter Vk Yandex Mail.ru

By The End Of Tonight - Sleeping While Driving Prevents Old Age - таба, видео

Печатать
Просмотров: 49
By The End of Tonight - Sleeping While Driving Prevents Old Age
...In a Letter to the Sandbox (2003)/  Fireworks on Ice (2004)
Temporary Residence Ltd
https://bytheendoftonight.bandcamp.com/

Tried to get this as close as possible, this song is all over the place but gives you an idea.
Several parts intermingle and switch so I put the times. Enjoy!

EADGBE

Gtr1 20X
E---------------|
B---------------|
G---------------|
D--3-----4------|
A--4--7--5--6---|
E---------------|


Gtr2 Pick first chord 6X then tremolo pick

E---9---------------9999999999999999999999999151515151515999999151515151515--------|
B---8---------------8888888888888888888888888141414141414888888141414141414--------|
G---6---------------6666666666666666666666666121212121212666666121212121212--------|
D----------------------------------------------------------------------------------|
A----------------------------------------------------------------------------------|
E----------------------------------------------------------------------------------|


Gtr1 8X
E---------------|
B---------------|
G---------------|        0:26
D--3-----4------|
A--4--7--5--6---|
E---------------|


Gtr2 Accent notes    2X                      1X                      1X Slide up!
E--------------------------------------------------------------------------------|
B--8--8--8-8--8--8--8-8----6--6--6-6--6--6--6-6----8--8--8-8--8--8--8-8/24-------|
G--6--6--6-6--6--6--6-6----4--4--4-4--4--4--4-4----6--6--6-6--6--6--6-6/24-------|
D--5--5--5-5--5--5--5-5----3--3--3-3--3--3--3-3----5--5--5-5--5--5--5-5/24-------|
A--------------------------------------------------------------------------------|
E--------------------------------------------------------------------------------|

Gtr1 & Gtr2   4X
E---------------------------|
B---------------------------|
G---------------------------|
D--55555--555--5555---------|
A---------------------------|
E--33333--333--3333---------|

Gtr 1&2                                   Gtr 1                      Gtr 2
E----------5---4-----------5---4----------4h5p4h5p4-3h4p3h4p3--------16h17p16h17p16-15h16p15h16p15-|
B--------3---3-----------3---3---------------------------------------------------------------------|
G--------------------------------------------------------------------------------------------------|     0:34
D--55555-----------55555-----------55555-----------------------------------------------------------|
A--------------------------------------------------------------------------------------------------|
E--33333-----------33333-----------33333-----------------------------------------------------------|

Then 1X
E----------5---4-----|
B--------3---3-------|
G--------------------|
D--55555-------------|
A--------------------|
E--33333-------------|


Gtr 1: Crazy ascending part (tremolo pick)
E---------------------------------------9-10-11-12-10-11-12-13-|
B-6-7-8-9-7-8-9-10-8-9-10-11-9-10-11-12------------------------|
G--------------------------------------------------------------|  0:46
D--------------------------------------------------------------|
A--------------------------------------------------------------|
E--------------------------------------------------------------|

Gtr 1: Crazy ascending part cont'd (tremolo pick)
E-------------------------------------------------------|
B2-2-2-2-2-2-2-2/-14-14-14-14-14-14-14-14-14-14-14-14---|
G-------------------------------------------------------|
D-------------------------------------------------------|
A-------------------------------------------------------|
E-------------------------------------------------------|

Gtr 2 Not sure what's played here, sounds like this towards the end of Gtr 1
E---------------------------------------------------------|
B---------------------------------------------------------|
G---------------------------------------------------------|
D--3-33333-4-44444-3-33333-4-44444------------------------|
A--4-44444-5-55555-4-44444-5-55555------------------------|
E---------------------------------------------------------|

Gtr 1 2X
E--------------------------------------------------------------------------------------|
B--------------------------------------------------------------------------------------|
G------4-4-4----4-4-4---4-4-4-----4---4-------4-4-4----4-4-4---4-4-4---6---6-----------| 0:53
D--------------------------------------------------------------------------------------|
A--4----------4-------4---------X-2-X-2---4----------4-------4-------X-4-X-4-----------|
E-------------------------------X-0-X-0------------------------------X---X-------------|

Gtr2 2X
E--4-0-0-4-0-0-4-0-4-0-0-4-0-0-4-0-5-0-0-5-0-0-5-0-5-0-0-5-0-0-5-0-----------------|
B----------------------------------------------------------------------------------|
G----------------------------------------------------------------------------------|
D--------------------------------------------------------------------------2---2---|
A------------------------------------------------------------------------X-2-X-2---|
E------------------------------------------------------------------------X-0-X-0---|

Gtr 1
E---------------------------------------------------------------|
B-------------------5-4---4--5-4---4---11-10---10--11-10---10---|
G-----------------------5--------5-----------11----------11-----|        1:01
D----2---2---2---2----------------------------------------------|
A--X-2-X-2-X-2-X-2----------------------------------------------|
E--X-0-X-0-X-0-X-0----------------------------------------------|

Gtr 2
E---------------------------------------------------------|
B---------------------------------------------------------|
G----4---4---5---6------5-4-----5-4-----4-4-----4---------|
D---------------------------------------------------------|
A--X-2-X-2-X-3-X-4--X-X-3-2-X-X-3-2-X-X-2-2-X-X-2---------|
E--X-0-X-0-X---X----X-X-----X-X-----X-X-----X-X-----------|


Gtr 1 2X Gtr2 1X
E-------------------------------------------------|
B-------------------------------------------------|
G-66666--6--6---66666---6---6---------------------|      Both guitars play end 2X
D--------------------------------55555---88888----|
A-44444--4--4---44444---4---4---------------------|
E--------------------------------33333---66666----|

Gtr2 2nd time
E------4--4--4--------4--4--4---------------------|
B-----2--2--2--------2--2--2----------------------|
G----2--2--2---0----2--2--2---0-------------------|      Both guitars play end 2X
D--------------------------------55555---88888----|
A-------------------------------------------------|
E--------------------------------33333---66666----|

Gtr2 16X
E---------------------------|
B---------------------------|
G--11h14p12p0---------------|
D---------------------------|
A---------------------------|
D---------------------------|

Gtr 1 & 2 Clean

E-10---10---7--7---10---10---7---7-----------------------------------|
B---0----0---0---0---0----0---0---0----7----7----7---7---------------|
G----11---11--8---8---11---11--8---8-----7----7----6---6-------------| 1:27
D--------------------------------------------------------------------|
A--------------------------------------------------------------------|
E--------------------------------------------------------------------|


Gtr 1 Tremolo pick 4X
E-101010101313131010101013131212------------|
B-------------------------------------------|
G-111111111414141111111114141313------------|    1:45
D-------------------------------------------|
A-------------------------------------------|
E-------------------------------------------|

Gtr 2 Tremolo pick 4X
E------------------------------------|
B-7777779999977777799999-------------|
G------------------------------------|
D------------------------------------|
A------------------------------------|
E------------------------------------|

Gtr 1 Tap 4X    Gtr2 Tap 2X
E--------------------------------------------------------------------|
B--------------------------------------------------------------------|
G-12------12------12------12------12------12------12-----------------|   1:50
D--------------------------------------------------------------------|
A-10p0h10p011p10-10p0h10h11p10h7-7p0h7h9p0h5-5p0h5h7p0h3-------------|
E--------------------------------------------------------------------|


Gtr2
E---------------------------------------------------------|
B--12/10---7/8---12/10--10/12^---12/10---7/8--8/7-7/5--5--|
G---------------------------------------------------------|      1:57
D---------------------------------------------------------|
A---------------------------------------------------------|
E---------------------------------------------------------|


Gtr1    2X
E----0-------0------------------------------00000000000---------|
B----5-------4------5-5555-----11/8-----10--44444444445---------|
G-------------------5-5556--------------------------------------|        2:04
D--------------------------4/7------5/6-------------------------|
A---------------------------------------------------------------|
E--0-------2-----4----------------------------------------------|


Gtr2
E----0--------0--------0----------------------------------|
B----5--------4--------1----------------------------------|
G---------------------------------------------------------|
D---------------------------------------------------------|
A---------------------------------------------------------|
E---------------------------------------------------------|

Gtr1    2X

E----0-------0-------------|
B----5-------4------5------|
G-------------------5------|     2:16
D--------------------------|
A--------------------------|
E--0-------2-----4---------|

Gtr2 3X  Let open note ring to create dissonance

E-0-----0----0----0-----0--0-0--0-0-0----0-----0----0---0----0--0-0--0-0-0----|
B-3/5---5/7--7/8--8/10--10-8-7--5-3-1----3/5---5/7--7/8-8/10-10-8-7--5-3-1----|
G-----------------------------------------------------------------------------|  2:16
D-----------------------------------------------------------------------------|
A-----------------------------------------------------------------------------|
E-----------------------------------------------------------------------------|

Guitar 1&2
E---------------------------------------------------------------|
B---------------------------------------------------------------|
G---------------------------------------------------------------|        2:36
D--2--------10---------5/7--7--7/9--9--9/11--11--11/5-----2-----|
A--2------------------------------------------------------2-----|
E--0--------8----------3/5--5--5/7--7--7/8---8---8/3------0-----|


Gtr1 After 8X pick rhythm another 4X starting on last chord
E----------------------------|
B----------------------------|
G----------------------------|
D--10-------5--------2-------|
A--10-------5--------2-------|
E--8--------3--------0-------|

Gtr2                    8X                                                                4X
E--------19------------------I-----------19-------------10----------------19---------12-10--------|
B------0---------------------I----15--15------------12----12-12-----15--15---------12-----12------|
G----14----------------------I--16--16---------7/11---------------16--16-------7/11---------------|      2:49
D----------------------------I--------------------------------------------------------------------|
A--14------------10-10--10---I--------------------------------------------------------------------|
E-------------12------12-----I--------------------------------------------------------------------|

Gtr 1&2
E--------------------------------------------------------------------|
B--------------------------------------------------------------------|
G--------------------------------------------------------------------|   3:39
D--------------------------------------------------------------------|
A--2-2-2-2-2-2-2-2---10-10-10-10-10-10-10-10--5-5-5-5-5-5-5-5--------|
E--0-0-0-0-0-0-0-0---8--8--8--8--8--8--8--8---3-3-3-3-3-3-3-3--------|

Final Riff

Gtr 1 4X Fingerstyle
E---------------------------------|
B---------------------------------|
G-5---5---------------------------|
D-7-------------------------------|
A-----7---8----3------------------|
E---------10---5------------------|


Gtr 2 4X
E--7/5----------------------------|
B---------------------------------|
G---------------------------------|
D---------------------------------|
A---------------------------------|
E---------------------------------|

Then End!
Добавлено: 22.11.2015
Другие материалы по этой песне:
  • Аккорды и текст

Страница создана 22.11.2015
http://primanota.ru/by-the-end-of-tonight/sleeping-while-driving-prevents-old-age-chords.htm
Привет, Гость.
Предлагаем пройти революционный курс по гитаре.
Подарок от PrimaNota.Ru, забирай!