PrimaNota.ru - самый крупный в мире бесплатный архив песенных текстов, аккордов, табулатур и нот


By The End Of Tonight - Setting Sail In April - таба, видео

Регистрация Запомнить меня
Войти через:  Facebook Google Twitter Vk Yandex Mail.ru

By The End Of Tonight - Setting Sail In April - таба, видео

Печатать
Просмотров: 42
By The End of Tonight - Setting Sail In April
A Tribute to Tigers (2005)
Temporary Residence Ltd
https://bytheendoftonight.bandcamp.com/

Tried to get this as close as possible. Enjoy!

Gtr 1 : DADGBE
Gtr 2 : EADGBE

Gtr 1   2X
E----------------------------------------------------------------------------------------------|
B----------------------------------------------------------------------------------------------|
G--------7---------------7--------------7---------------------7--------------------------------|
D----------------4--------------4--------------4------4--------------4-------------2--4--2--0--|
A---0--5------------0--5-----------0--5------------------0--5-----------0--2--4--5-------------|
D----------2--4------------2--4-----------2--4---0--2-----------2--4---------------------------|


Gtr 2   2X
E----------------------------------------|
B----------------------------------------|
G----------------------------------------|
D----------------------------------------|
A--4--4--4--4--4--4--4--4--4-------------|
E--2--2--2--2--2--2--2--2--2-------------|


Gtr 1
E----------------------------------------|
B----------------------------------------|       0:12
G----------7----------7------------------|
D----4---7--7---4---7--7---4-------------|
A--5---5------5---5------5---------------|
D----------------------------------------|


Gtr 2
E----------------------------------------|
B----------------------------------------|
G----------------------------------------|
D----0---2-4-0--0---2-4-0--0-------------|
A--2---0------2---0------2---------------|
E----------------------------------------|

Gtr 1
E----------------------------------------|
B----------------------------------------|       0:14
G----------------------------------------|
D----------------------------------------|
A--5--2-----0------------5---------------|
D--------4-----2--4--0-------------------|


Gtr 2
E----------------------------------------|
B----------------------------------------|       0:14
G--------------------11--9---------------|
D-----------4--7--9----------------------|
A--------5-------------------------------|
E--0--7----------------------------------|


Gtr 1
E----------------------------------------|
B----------------------------------------|       0:20
G----------7----------7------------------|
D----4---7--7---4---7--7---4-------------|
A--5---5------5---5------5---------------|
D----------------------------------------|

Gtr 2
E----------------------------------------|
B----------------------------------------|
G----------------------------------------|
D----0---2-4-0--0---2-4-0--0-------------|
A--2---0------2---0------2---------------|
E----------------------------------------|


Gtr 1   6X
E----------------------------------------|
B----------------------------------------|       0:23
G--11----11-----7----7-------------------|
D-----12----12----7----7-----------------|
A----------------------------------------|
D----------------------------------------|


Gtr 2   2X
E----------------------------------------|
B----------------------------------------|
G----------------------------------------|
D--9--9/12--12--12/16--16^--16/5---------|
A----------------------------------------|
E--7--7/10--10--10/14--14^--14/3---------|


Gtr 2
E----------------------------------------|
B----------------------------------------|
G---------------------11--9--------------|
D---------------9--12--------------------|
A---------9--12--------------------------|
E--7--10---------------------------------|

Gtr 2
E----------------------------------------|
B----------------------------------------|
G--11-11---7--7---9--9---4--4------------|
D----------------------------------------|
A--9--9----5--5---7--7---2--2------------|
E----------------------------------------|


Gtr 1
E----------------------------------------|
B----------------------------------------|
G--11-11---7--7---9--9---4--4------------|
D----------------------------------------|
A--9--9----5--5---7--7---2--2------------|
D----------------------------------------|

Gtr 2 Tap       4X
E--------------------------------------------------------------|
B--------------------------------------------------------------|         0:46
G--------------------------------------------------------------|
D----7-7---7--7-7---7-7--7--7-7-----7----7-------7----7--------|
A---------------------------------7----7---7---7----7---7------|
E--7-----7--7--7--5-----5--5-5--3-----3-3-3--3-----3-3-3-------|


Gtr 1
E---------------------------------------------------------------------------------------------|
B---------------------------------------------------------------------------------------------|
G--11-1111111111111111-9--9-9-9-9-9-9-9--14--14-14-14-14-14-14-14-14--14/16/12-12/14/11-------|
D---------------------------------------------------------------------------------------------|
A---9--9-9-9-9-9-9-9-9-7--7-7-7-7-7-7-7--12--12-12-12-12-12-12-12-12--12/14/10-10/12/9--------|
D---------------------------------------------------------------------------------------------|


Gtr 1                                                                      Repeat End Part 2X
E--------------------------------------------------------------------------151515141414151515141414--|
B----------------------------------------15151515151515151515151515151515----------------------------|
G--11-1111111111111111-9--9-9-9-9-9-9-9------------------------------------121212111111121212111111--|
D----------------------------------------12121212121212121212121212121212----------------------------|
A---9--9-9-9-9-9-9-9-9-7--7-7-7-7-7-7-7--------------------------------------------------------------|
D----------------------------------------------------------------------------------------------------|

Gtr 1 cont'd
E---------------------------------------|
B--15151515--------15151515-------------|
G----------14141414--------14141414-----|
D--12121212--------12121212-------------|
A----------12121212--------12121212-----|
D---------------------------------------|


Gtr 1   2X                                      2nd Time end with Open D chord
E-----------------------------------------I-----------|
B-----------------------------------------I-----------|          1:10
G-----------------------------------------I-----------|
D---5---------------7---------------9-----I-------0---|
A---5---------------7---------------9-----I-------0---|
D---5---------------7---------------9-----I-------0---|


Gtr 2   2X
E----------------------------------------------------------------|
B-----7/12----12/7-----7/5----5/7-----5/3----3-3-3-2--2-2-2-3----|       1:10
G---7----------------7--------------7-------------0----0-0-0-----|
D----------------------------------------------------------------|
A----------------------------------------------------------------|
E----------------------------------------------------------------|

Gtr 1
E--------------------------|
B--------------------------|
G--------------------------|
D--9/2--2--2--2------------|
A--9/2--2--2--2------------|
D--9/2--2--2--2------------|


Gtr 2
E---------------------------------------------------------------------------------------------------|
B---------------------------------------------------------------------------------------------------|
G---------------------------------------------------------------------------------------------------|
D--9/2--2--2--2---14--14--13--13--12--12--11-11-10-10-9--9--8--8--7--7--6--6--5--5--4--4--3--3------|
A--9/2--2--2--2-------------------------------------------------------------------------------------|
E--7/0--0--0--0---12--12--11--11--10--10--9--9--8--8--7--7--6--6--5--5--4--4--3--3--2--2--1--1------|


Gtr 1
E----------------------------------------|
B----------------------------------------|
G----------------------------------------|
D--4--5--6--7--8--9--10--11--12--13------|
A----------------------------------------|
D--4--5--6--7--8--9--10--11--12--13------|


Gtr 2
E----------------------------------------|
B----------------------------------------|
G----------------------------------------|
D--4--5--6--7--8--9--10-11-12--13--------|
A----------------------------------------|
E--2--3--4--5--6--7--8--9--10--11--------|


Gtr 1
E------------------------------------------------------------------------------------|
B------------------------------------------------------------------------------------|
G------------------------------------------------------------------------------------|
D--14--14--13--13--12--12--11-11-10-10-9--9--8--8--7--7--6--6--5--5--4--4--3--3------|
A------------------------------------------------------------------------------------|
D--14--14--13--13--12--12--11-11-10-10-9--9--8--8--7--7--6--6--5--5--4--4--3--3------|


Gtr 2
E------------------------------------------------------------------------------------|
B------------------------------------------------------------------------------------|
G------------------------------------------------------------------------------------|
D--14--14--13--13--12--12--11-11-10-10-9--9--8--8--7--7--6--6--5--5--4--4--3--3------|
A------------------------------------------------------------------------------------|
E--12--12--11--11--10--10--9--9--8--8--7--7--6--6--5--5--4--4--3--3--2--2--1--1------|


Gtr 1
E-------------------------------------------------------------------------------------|
B-------------------------------------------------------------------------------------|          1:39
G--------9------9-9------9-9---------------9-9---9-9----------9-9--------------9-9----|
D--------8------8-8------8-8---------------8-8---8-8----------8-8--------------8-8----|
A--------7------7-7------7-7---------------7-7---7-7----------7-7--------------7-7----|
D-------------------------------------------------------------------------------------|

Gtr 2
E-------------------------------------------------------------------------------------|
B-------------------------------------------------------------------------------------|          1:39
G-------------------------------------------------------------------------------------|
D-------------------------------------------------------------------------------------|
A--2-2-2-----2-2----2-2-2---2-2-2-2-2-2-2-2---2-2--2-2--2-2-2------2-2-2-2-2-2-2-2----|
E--0-0-0-----0-0----0-0-0---0-0-0-0-0-0-0-0---0-0--0-0--0-0-0------0-0-0-0-0-0-0-0----|

Gtr 1   4X
E----------------------------------------|
B----------------------------------------|
G--------------------------9--9----------|
D------3-----2----3----2---8--8----------|
A----2-----2-----2----2----7--7----------|
D--2-----2-----2----2--------------------|

Gtr 2   4X Bend
E----------------------------------------|
B----------------------------------------|
G----------------------------------------|
D----------------------------------------|
A-----2----------------------------------|
E-----0----------------------------------|

Gtr 1                   Alternate middle with Gtr 2
E--------------------------------------------------------------------------------|
B--------------------------------------------------------------------------------|
G--------------------------------------------------------------------------------|
D--------------------------------------------------------------------------------|
A--2-2-2-2-2-2-2--2----2-2-2-2-2-2-2-2--2---2--2--2--2--2----2----2----2----2----|
D--2-2-2-2-2-2-2--2----2-2-2-2-2-2-2-2--2---2--2--2--2--2----2----2----2----2----|

Gtr 2                   Alternate middle with Gtr 1
E--------------------------------------------------------------------------------|
B--------------------------------------------------------------------------------|
G--------------------------------------------------------------------------------|
D--------------------------------------------------------------------------------|
A--2-2-2-2-2-2-2--2----2-2-2-2-2-2-2-2--2---2--2--2--2--2----2----2----2----2----|
E--0-0-0-0-0-0-0--0----0-0-0-0-0-0-0-0--0---0--0--0--0--0----0----0----0----0----|


Gtr 1
E-------------------------------------------------------------------------------------------------|
B----------------------------------------------------------------------------------------10-------|      2:10
G------7-6---------7-6---------7-6---------7-6^6-------7-6---------7-6---------12-11---11---------|
D--5-------7-5--7------7-5--9------7-5--9--------7--5------7-5--7------7-5--9--------12-----12----|
A--5------------7-----------9-----------9-----------5-----------7-----------9---------------------|
D--5------------7-----------9-----------9-----------5-----------7-----------9---------------------|

Gtr 2   Tremolo pick    2X
E-----------------------------------------------------------------------------------------------------------|
B--12121212121212121212--------------------17171717171717171717--------------------19191919191919191919-----|
G----------------------14141414141414141414--------------------14141414141414141414-------------------------|
D-----------------------------------------------------------------------------------------------------------|
A-----------------------------------------------------------------------------------------------------------|
E-----------------------------------------------------------------------------------------------------------|

Gtr 1 3X
E-----------------------------------------------------|
B-----------------------------------------------------|          2:31
G-----------------------------------------------------|
D---------------------4-----------------------0-------|
A--9/5-----5-----4/5-----0-----------5----0-----------|
D--------------------------------5--------------------|

Gtr 2   3X
E------------------------------------------------------------------------------------------|
B----------------------------------------------------------------------------   2:31-3:04--|
G------------------------------------------------------------------------------------------|
D--5-5-5-5-5------5-5-5-5-5---------7--7-7-----7-7---7-7-----9-9-----9-9-------------------|
A--5-5-5-5-5------5-5-5-5-5---------7--7-7-----7-7---7-7-----9-9-----9-9-------------------|
E--3-3-3-3-3------3-3-3-3-3---------5--5-5-----5-5---5-5-----7-7-----7-7-------------------|


Gtr 1   2X                                              End of 2nd time (tremolo pick)
E------------------------------------------------------------------I--------|
B------------------10------------------------------10--------------I--------|    2:48
G--11---11-----9------11--11^------11---11-----9------11--11^------I----11--|
D-----0----12----12-----------12------0----12----12----------------I----12--|
A------------------------------------------------------------------I--------|
D------------------------------------------------------------------I--------|


Gtr 2   2X
E-------------------------------------------------------------------------|
B-----------------------------------------------------------    3:05-3:27-|
G-------------------------------------------------------------------------|
D--5555555555555555--7777777777777777--99999999999999---------------------|
A--5555555555555555--7777777777777777--99999999999999---------------------|
E--3333333333333333--5555555555555555--77777777777777---------------------|


Gtr 1
E--1212121212121212141414141414141415151515151515151515151515151515---|
B---------------------------------------------------------------------|          3:05
G---------------------------------------------------------------------|
D---------------------------------------------------------------------|
A---------------------------------------------------------------------|
D---------------------------------------------------------------------|


Gtr 1 cont'd
E--191919191919191921212121212121212222222222222222----|
B------------------------------------------------------|
G------------------------------------------------------|
D------------------------------------------------------|
A------------------------------------------------------|
D------------------------------------------------------|


Gtr 1 cont'd
E--21^-19-17-15-14h15p14-----21^-19-17-14-14-15-14--12121212121212121414141414141414---|
B-----------------------15--------------------------14141414141414141515151515151515---|
G--------------------------------------------------------------------------------------|
D--------------------------------------------------------------------------------------|
A--------------------------------------------------------------------------------------|
D--------------------------------------------------------------------------------------|


Gtr 1 cont'd
E--15151515151515151717171717171717-----|
B--17171717171717171919191919191919-----|
G---------------------------------------|
D---------------------------------------|
A---------------------------------------|
D---------------------------------------|

Gtr 1 3X
E-----------------------------------------------------|
B-----------------------------------------------------|          3:28
G-----------------------------------------------------|
D---------------------4-----------------------0-------|
A--9/5-----5-----4/5-----0-----------5----0-----------|
D--------------------------------5--------------------|

Gtr 2
E------------------------------------------------------------|
B------------------------------------------------------------|   3:28
G------------------------------------------------------------|
D--5-5-5-5-5------5-5-5-5-5---------7-7--7-7----7-7---7-7----|
A--5-5-5-5-5------5-5-5-5-5---------7-7--7-7----7-7---7-7----|
E--3-3-3-3-3------3-3-3-3-3---------5-5--5-5----5-5---5-5----|

Gtr 1
E----------------------------------------|
B----------------------------------------|
G----------------------------------------|
D------------------5/12--12/14-----------|
A--9-9-9-9-9-9-9-------------------------|
D--9-9-9-9-9-9-9---5/12--12/14-----------|

Gtr 2
E----------------------------------------|
B----------------------------------------|
G----------------------------------------|
D------------------5/12--12/14-----------|
A--9-9-9-9-9-9-9-------------------------|
E--7-7-7-7-7-7-7---3/10--10/12-----------|

Gtr 1 2X
E-------------------------------------------------------------|
B-------------------------------------------------------------|  3:45
G-------------------------------------------------------------|
D------11--11--11-----11--11--11----11--11--11----11--11--11--|
A-------------------------------------------------------------|
D--14^---14--14---14^---14--14---14^--14--14---14^--14--14----|


Gtr 1 cont'd
E----------------------------------------------------------|
B----------------------------------------------------------|
G-----6-7-9-7-6-4-6^-4-2----6-7-9-7-6-4-6^-6^-6^-6^--------|
D----------------------------------------------------------|
A--5---------------------5---------------------------------|
D----------------------------------------------------------|


Gtr 2   2X
E-------------------------------------------------------------|
B-------------------------------------------------------------|          3:45
G-------------------------------------------------------------|
D------11--11--11-----11--11--11----11--11--11----11--11--11--|
A-------------------------------------------------------------|
E--12^---12--12---12^---12--12---12^--12--12---12^--12--12----|


Gtr 2 cont'd    Hit last note on the 2nd time
E-----------------------------------------------------|
B----------------------------------------------10-----|
G-----------------------------------------------------|
D--------------11---------------------11--------------|
A--------12--------------------12---------------------|
E--10--------------------10---------------------------|


Gtr 1
E-------------------------------------------------------------------------------------|
B-------------------------------------------------------------------------------------|
G--7777777777777777----------------7777777777777777-----------------------------------|
D--7777777777777777555555555555555577777777777777775555555555555555-------------------|
A--5555555555555555333333333333333355555555555555553333333333333333-------------------|
D------------------5555555555555555----------------5555555555555555-------------------|

Gtr 2
E-----------------------------------------------------------------------------------------------------|
B-----------------------------------------------------------------------------------------------------|
G-----------------------------------------------------------------------------------------------------|
D--121212121212121212121212121212125555555555555555121212121212121212121212121212125555555555555555---|
A--121212121212121212121212121212123333333333333333121212121212121212121212121212123333333333333333---|
E--101010101010101010101010101010103333333333333333101010101010101010101010101010103333333333333333---|

Gtr 1
E---------------------------------------------|
B---------------------------------------------|
G---------------------------------------------|
D--5--5--5----5--5--5----2--2--2----2--2--2---|
A--3--3--3----3--3--3----2--2--2----2--2--2---|
D--5--5--5----5--5--5----2--2--2----2--2--2---|

Gtr 2
E---------------------------------------------|
B---------------------------------------------|
G---------------------------------------------|
D--5--5--5----5--5--5----2--2--2----2--2--2---|
A--3--3--3----3--3--3----2--2--2----2--2--2---|
E--3--3--3----3--3--3----0--0--0----0--0--0---|


Gtr 1
E------------------------------------------------|
B------------------------------------------------|       4:24
G------------------------------------------------|
D--5------------5------------2--------------2----|
A--3------------3------------2--------------2----|
D--5------------5------------2--------------2----|


Gtr 2
E----------------------------------------------------------|
B----------------------------------------------------------|     4:24
G----------------------------------------------------------|
D----------------------------------------------------------|
A----------------------------------------------------------|
E--8/3/8--0-----8/3/8--0-----10/3/12--0-----10/3/12--0-----|

Gtr 1
E----------------------------------------|
B----------------------------------------|
G----------------------------------------|
D----7-----5---------7----5--------------|
A----7-----3---------7----3--------------|
D----7-----5---------7----5--------------|


Gtr 2
E----------------------------------------|
B----------------------------------------|
G----------------------------------------|
D----7-----5---------7-----5-------------|
A----7-----3---------7-----3-------------|
E----5-----3---------5-----3-------------|


Gtr 2   Repeat to end
E----------------------------------------|
B----------------------------------------|       4:33
G---------------------------0------------|
D-------2--------2--------2---2----------|
A----3----3----3---3----3-------3--------|
E--5---------3--------1------------0-----|
Добавлено: 22.11.2015
Другие материалы по этой песне:
  • Аккорды и текст

Страница создана 22.11.2015
http://primanota.ru/by-the-end-of-tonight/setting-sail-in-april-chords.htm
Привет, Гость.
Предлагаем пройти революционный курс по гитаре.
Подарок от PrimaNota.Ru, забирай!