PrimaNota.ru - самый крупный в мире бесплатный архив песенных текстов, аккордов, табулатур и нот


By Blood And Iron - The Infernal Offering - таба, видео

Регистрация Запомнить меня
Войти через:  Facebook Google Twitter Vk Yandex Mail.ru

By Blood And Iron - The Infernal Offering - таба, видео

Печатать
Просмотров: 85
INFERNAL OFFERING - BY BLOOD AND IRON
DROP B - ADVANCED - ISH
THIS WILL BE THEIR FIRST TAB ON UG.
Do you have any idea how much i can not hear due to crash cymbals. fuck

Artificial harm. - #
Slide - /\
hammer-on pull-off - h p
normal harmonic - +
choice or optional - ( )
palm mute - *
bend  - b
let ring - ~

INTRO.
GTR 1 ( guitar two doing 0's in backround)
C#|-------------------------------------------------|
G#|-------------------------------------------------|
E |-------------------------------------------------|
B |--1-4-1--------0h3p6---1-4-------0h3h6-----------|
F#|--1-4-1-0h4h6----------1-4-0h4h6-------0h3p2h3p0-|
B |--1-4-1----------------1-4-----------------------|



INTRO CONTINUED 0:06-0:18 *
C#|-----------------------|--ending-one---|-------ending two-------------|
G#|(not played 2nd or 4th)|---------------|------------------------------|
E |*---------------(---V--)--------------*|-----------------------------*|
B |--100000040000001000000|---------0h3p6-|---------0h3p6---------0h3p6--|
F#|*-100000040000001000000|--0h4h6-------*|--0h4h6---------0h4h6--------*|
B |--100000040000001000000|---------------|------------------------------|

C#|--ending-three--|----------ending-four------------|
G#|----------------|---------------------------------|
E |---------------*|----2h5p2h5p2h5p0-8p5h8p5h8p5----|
B |----------0h3h6-|-----------------------------5---|
F#|---0h4h6-------*|---------------------------------|
B |----------------|---------------------------------|


ARTIFICIAL HARMONIC PART. 0:18 (i just do normal bent harmonics)
this works for me. but for the artfcl. harms. I just bend a normal harmonic
and it sounds exactly like it. if not, i dont think i have the right arfcl h.
C#|----------------------------------------------------------|
G#|----------------------------------------------------------|
E |----------------------------------------------------------|
B |----------6-5-5-6-----------(5#)b-------------------------|
F#|--6-5-4-5-6-5-5-6--664-664/-(3+)b---2-2-2--2-2-2-2-2-2-2--|
B |--6-5-4-5-6-5-5-6--664-664/---------2-2-2--2-2-2-2-2-2-2--|
     * * * *          *** ***          * * *  * * * * * * *

C#|------------------------------------------------------------------------------|
G#|------------------------------------------------------------------------------|
E |--3#b-------------------------------------------------------------------------|
B |------3#b--------------------------------------------------0h3-3/6-6/9-12/9---|
F#|-----------2-2-2--3-3-3--3-3-3/5-5/8\7\6\44--2-2-2-2-2-2-2--------------------|
B |-----------2-2-2--2-2-2--2-2-2/4-4/7\6\5\33--2-2-2-2-2-2-2--------------------|
              * * *  * * *  * * * * * * * * **  * * * * * * *
0:30 breakdown
C#|-------------------------------------------|---------------------------|
G#|-------------------------------------------|at-end-of-second-time-V----|
E |-------------------------------------------|*--------------------3#b--*|
B |------------------------------------------0|---------------------------|
F#|--2-2-2-2-2-2-2---5-4---6-5---2-2-2-2-2-0--|*00--00-00-00--0000--00-00*|
B |--2-2-2-2-2-2-2---5-4---6-5---2-2-2-2-2-0--|-00--00-00-00--0000--00-00-|
     * * * * * * *   * *   * *   * * * * * * *  **  ** ** **  ****  ** **

C#|------------------------------|--------------------------|
G#|------------------------------|--------------------------|
E |------------------------------|--------------------------|
B |--------------------------3#b-|--------------------------|
F#|00--00-00-00--0000--00--00----|00--00-00-00--0000--00-00-|
B |00--00-00-00--0000--00--00----|00--00-00-00--0000--00-00-|
   **  ** ** **  ****  ** **      **  ** ** **  ****  ** **



oh fuck not the-
SOLO 0:47 (two guitars in harmony, i did highest guittar)
C#|----------------------------------------------12~--15-17-18h20p18-17-15-17--------15-17-18-20--|
G#|--10------------10h11-13h15p13-11-10---10-11------------------------------17-15-17-------------|
E |----7-----10h12---------------------12---------------------------------------------------------|
B |-----10/12-------------------------------------------------------------------------------------|
F#|-----------------------------------------------------------------------------------------------|
B |-----------------------------------------------------------------------------------------------|


C#|--17h20p17p13--X8-----------17-18-20-18-17-----------17----15-18-17-15--|
G#|----------------------17-18----------------18-|15-17----18--------------|
E |------------------------------------------------------------------------|
B |------------------------------------------------------------------------|
F#|------------------------------------------------------------------------|
B |------------------------------------------------------------------------|

1:00  LH        RH
C |---16p14p10---18t17t (alternate)|-22-20-18-20-18-17-18-17----17----------|
G#|------^not to sure ^------------|-------------------------20----20-18-20~|
E |--------------------------------|----------------------------------------|
B |--------------------------------|----------------------------------------|
F#|--------------------------------|----------------------------------------|
B |--------------------------------|----------------------------------------|

C#|-13h15h17----------------------------------------------------------------13h17p13h17--|
G#|----------13h15h17-------------------------------------------13h17p13h17--------------|
E |-------------------14h15h17----------------------14h17p14h17--------------------------|
B |----------------------------14h15h17-14h17p14h17--------------------------------------|
F#|--------------------------------------------------------------------------------------|
B |--------------------------------------------------------------------------------------|
END
C#|--20~-18-17--18~17-15-10~----------------------------------|
G#|-----------------------------------------------------------|
E |-----------------------------------------------------------|
B |-----------------------------------------------------------|
F#|-----------------------------------------------------------|
B |-----------------------------------------------------------|



next part 1:12 ( on ending note of solo)
C#|----------------------------------------------|
G#|----------------------------------------------|
E |-7----------6---------------------------------|
B |-7----------6--------------------------3333222|
F#|-5-0-0-0-0-04----8---10---8----11110000-------|
B |---0-0-0-0-0---0---0----0---0-----------------|
      * * * * *   *   *    *   *

C#|-----------------------------------------------------------------------|
G#|-----------------------------------------------------------------------|
E |-----------------------------------------------------------------------|
B |-777666333000-------------777666333-----------777666333000-------------|
F#|-------------444-00-00-00-----------5-8-7-5-0------------444--00-00-00-|
B |-----------------00-00-00-----------5-8-7-5-0-----------------00-00-00-|
                    ** ** **           * * * * *                 ** ** **
1:23
C#|-------------------------------------------------------------------------------------------------|
G#|-------------------------------------------------------------------------------------------------|
E |-------------------------------------------------------------------------------------------------|
B |-8887733-----------------------------------------------------------------------------------------|
F#|---------555888777555-111000---------555888777555-11100055588877755111000----------111000--------|
B |---------555888777555-------4444h5h7-555888777555-------55588877755--------4444h5h7------4444h5h7|
            ************                ************       ***********
C#|-------------------|
G#|-------------------|
E |-------------------|
B |-0~-0~-0-----------|
F#|-1~-0~-1-0---------|
B |-0~----------------|

Atmospheric Breakdown (1:34) easiest part
C#|------------------------------------------------------------------------|
G#|------------------------------------------------------------------------|
E |------------------------------------------------------------------------|
B |------------------------------------------------------------------------|
F#|-00--00-00---00-00-00--00-00---00-00-00--00-00---00-00-00--00-00---11-00|
B |-00--00-00---00-00-00--00-00---00-00-00--00-00---00-00-00--00-00---11-00|
    **  ** **   ** ** **  ** **   ** ** **  ** **   ** ** **  ** **   **
C#|------------------------------------------------------------drum fill ^-|
G#|------------------------------------------------------------------------|
E |-------------------Keyboard orchestral singing--------------------------|
B |------------------------------------------------------------------------|
F#|-00--00-00---00-00-00--00-00---00-00-00--00-00---00-00-00--00-00---00-00|
B |-00--00-00---00-00-00--00-00---00-00-00--00-00---00-00-00--00-00---00-00|
    **  ** **   ** ** **  ** **   ** ** **  ** **   ** ** **  ** **   ** **

2:01
C#|---------------------------------------------------------------------------|
G#|---------------------------------------------------------------------------|
E |---------------------------------------------------------------------------|
B |---------------------------------------------------3+b-----7777----7777----|
F#|-00-00-00-0000000-----00-00-0000000-3+b-00-0000000----00-5-----5-8------4--|
B |-00-00-00-0000000-3+b-00-00-0000000-----00-0000000----00-------------------|
    ** ** ** *******     ** ** *******     ** *******    ** *     * *      *
C#|----------------------------------------------------------------|
G#|----------------------------------------------------------------|
E |----------------------------------------------------------------|
B |-------------------------------------3+b----7777----7777---5555-|
F#|--00-00-0000000-----00-0000000-3+b-0----0-5-----5-8------4------|
B |--00-00-0000000-3+b-00-0000000-----0----0-----------------------|
     ** ** *******     ** *******     *    * *     * *      *

2:14 (I think?)
C#|-------------------|------------------------|-----------------------|----------------------------|
G#|-------------------|------------------------|-----------------------|----------------------------|
E |--------X2---------|-----------X2-----------|-----------X2----------|--------------X1------------|
B |-------------------|------------------------|-----------------------|----------------------------|
F#|-----00-5-00-5-8888|-----00-4-00--4-10101010|-----00-8-00-8-12121212|------00-10-00-10-13131313--|
B |-7p0-00---00-------|-8p0-00---00------------|-9p0-00---00-----------|-10p0-00----00--------------|
    * * **   **         * * **   **              * * **   **             *  * **    **
C#|--------------------------------------|
G#|--------------------------------------|
E |--------------------------------------|
B |--fifteen-thirteen-twelve-ten---------|
F#|-15151515131313131212121210101010-----|
B |--------------------------------------|

2:26 (just 34 more seconds)
C#|------------------------------|-first-----|-second---|
G#|------------------------------|-ending----|-ending---|
E |-----------X2-----------------|-----------|----------|
B |-----------3------------------|------6677-|----------|
F#|-0000-0000-----3-3h5-0000-0000|--7788-----|-888~444~-|
B |-0000-0000---0-------0000-0000|-----------|----------|
    **** ****   * * * * **** ****

2:32 (nearly there)
C#|------------------------------------|   -------------------------------------|
G#|---guitar 1-------------------------|  guitar 2 comes in on 3rd time---------|
E |------------------------------------|   -------------------------------------|
B |-----8------8-------8-------0h5h7h8-|X3 ------11-------11--------11-------5+-|
F#|-0-7----0-7-----0-7---5-7-0---------|   ---10-------10--------10-------10----|
B |------------------------------------|   -8--------8---------8--------8-------|

2:42 This again
C#|------------------------------|-first-----|-second---|
G#|------------------------------|-ending----|-ending---|
E |-----------X2-----------------|-----------|----------|
B |-----------3------------------|------6677-|----------|
F#|-0000-0000-----3-3h5-0000-0000|--7788-----|-888~444~-|
B |-0000-0000---0-------0000-0000|-----------|----------|
    **** ****   * * * * **** ****

2:48 (one more thing)    sorry, to impossible to hear 2nd guitar
C#|-----------------------------------|-------------------------------------|
G#|-----------------------------------|-------------------------------------|
E |-----------------------------------|----------------------------0h3h7----|
B |-----------------------------------|-------------------------------------| X2
F#|-5555111144440000111100000-0-4-4-4-|-555511114444000011110000-0-------0--|
B |-----------------------------4-4-4-|----------------------------------0--|
                                * * *
 ;P 3:00
C#|-------------------|----------------------------|
G#|-------------------|----------------------------|
E |-------------------|-this is easier and sounds--|
B |-rhythm is actually|--better--------------------|
F#|-------------------|-----------GO!--------------|
B |-00000-000-000-----|-0-000-000-000--------------|

breakdown mofos!!
C#|------------------------------------------------------------|
G#|------------------------------------------------------------|
E |------------------------------------------------------------|
B |------------------------------------------------------------| GUNSHOTS
F#|-0-000-000-000---0-000-000-000---0-000-000-000---0-000-000--|
B |-0-000-000-000---0-000-000-000---0-000-000-000---0-000-000--|
    * *** *** ***   * *** *** ***   * *** *** ***   * *** ***
C#|-----------------------------------|
G#|-----------------------------------|
E |-----------------------------------|
B |-----------------------------------| SLOW-MO
F#|-000---0-000-000-000---0-000-000---|
B |-000---0-000-000-000---0-000-000---|
    ***   * *** *** ***   * *** ***
C#|------------------------------------------------------------------|
G#|------------------------------------------------------------------|
E |------------------------------------------------------------------|
B |------------------------------------------------------------------| LAUGHING
F#|-000---0-000-000-000---0-000-000-000---0-000-000-000---0-000-000--|
B |-000---0-000-000-000---0-000-000-000---0-000-000-000---0-000-000--|
    ***   * *** *** ***   * *** *** ***   * *** *** ***   * *** ***
C#|------------------------------------------------------------------|
G#|------------------------------------------------------------------|
E |------------------------------------------------------------------|
B |------------------------------------------------------------------|
F#|-000---0-000-000-000---0-000-000-000---0-000-000-000---0-000-000--|
B |-111---1-111-111-111---1-111-111-111---1-111-111-111---1-111-111--|...
    ***   * *** *** ***   * *** *** ***   * *** *** ***   * *** ***
C#|---------------------------------------------------------------------------|
G#|---------------------------------------------------------------------------|
E |---------------------------------------------------------------------------|
B |---------------------------------------------------------------------------| PIANO & VIOLIN
F#|-000---0-000-000-000---0-000-000-000---0-000-000-000---0-000-000----0~~~~--| UNTIL FADE OUT
B |-000---0-000-000-000---0-000-000-000---0-000-000-000---0-000-000----0~~~~--|
    ***   * *** *** ***   * *** *** ***   * *** *** ***   * *** ***

THE END. ( only took 4 days)
PLEASE RAte and comment. cheers
Добавлено: 27.07.2013
Другие материалы по этой песне:
  • Аккорды и текст

Страница создана 27.07.2013
http://primanota.ru/by-blood-and-iron/the-infernal-offering-chords.htm
Привет, Гость.
Предлагаем пройти революционный курс по гитаре.
Подарок от PrimaNota.Ru, забирай!