PrimaNota.ru - самый крупный в мире бесплатный архив песенных текстов, аккордов, табулатур и нот


Buzzhorn - Ordinary - текст песни, таба, бас-таба, видео

Регистрация Запомнить меня
Войти через:  Facebook Google Twitter Vk Yandex Mail.ru

Buzzhorn - Ordinary - текст песни, таба, бас-таба, видео

Печатать
Просмотров: 624
Band: The Buzzhorn
Song: Ordinary
the is just the intro but its 110% correct!!
Drop D


e|---------------------------------------------------------|
B|---------------------------------------------------------|
G|---------------------------------------------------------|
D|7-77777-/-10-10--5-55555-/-9-9--7-77777-/10-10--5-55555--|
A|5-55555-/--8--8--3-33333-/-7-7--5-55555-/-8--8--3-33333--|
D|5-55555-/--8--8--3-33333-/-7-7--5-55555-/-8--8--3-33333--|
figure out strum pattern by listening to the song, these are the right
chords though for sure.

e|--------------------------|
B|--------------------------|
G|--------------------------|
D|--------------------------|
A|-0-3--0-3-5-6-5-3-2-0~----|
D|--------------------0~----|

intro ends on this
this is one of my first tabs!! please rate!!
Добавлено: 19.03.2012
Вам также может быть интересно:
Другие материалы по этой песне:

Страница создана 19.03.2012
http://primanota.ru/buzzhorn/ordinary-chords.htm
Привет, Гость.
Предлагаем пройти революционный курс по гитаре.
Подарок от PrimaNota.Ru, забирай!