PrimaNota.ru - самый крупный в мире бесплатный архив песенных текстов, аккордов, табулатур и нот


Butthole Surfers - Who Was In My Room Last Night - текст песни, таба, бас-таба, видео

Регистрация Запомнить меня
Войти через:  Facebook Google Twitter Vk Yandex Mail.ru

Butthole Surfers - Who Was In My Room Last Night - текст песни, таба, бас-таба, видео

Печатать
Просмотров: 221
Авторы: Jeff Coffey, Gibby Haynes, Paul Leary, Jeff Pinkus

This is my first tab and I'm pretty sure it's right so tell me how I did.

Tuning: D A D G B e

Intro

e|-----------------|-----------------|
B|3-3-3------------|-----------------|
G|2-2-2------------|-----------------|Let ring
D|0-0-0------------|-----------------|
A|0-0-0------------|-----------------|
D|0-0-0------------|-----------------|

Verse
e|-----------------|-----------------|
B|-----------------|-----------------|
G|-----------------|-----------------|
D|-----------------|-----------------|
A|-----------------|-----------------|
D|-0-0-3-5-3-0-0-0-|-0-0-3-5-3-0-0-0-| x6


-Drums begin-


e|-----------------|-----------------|
B|-----------------|-----------------|
G|-----------------|-----------------|
D|-----------------|-----------------|
A|-----------------|-----------------|
D|-0-0-3-5-3-0-0-0-|-0-0-3-5-3-0-0-0-| x2


-Lyrics Begin-


e|-----------------|-----------------|
B|-----------------|-----------------|
G|-----------------|-----------------|
D|-----------------|-----------------|
A|-----------------|-----------------|
D|-0-0-3-5-3-0-0-0-|-0-0-3-5-3-0-0-0-| x8


Chorus
e|-------------------------|-----------------|-----------------|
B|-------------------------|-----------------|-----------------|
G|-5/7---5/7---5/7---5/7---|-----------------|-----------------|
D|-5/7---5/7---5/7---5/7---|-----3-5-3-------|-----3-5-3-------|
A|-3/5---3/5---3/5---3/5---|-3-5-------5-3-5-|-3-5-------5-3-5-|
D|-------------------------|-----------------|-----------------| x2

Solo

e|--------------------------------------|
B|-----------------------6---6-8-10p8p6-|
G|-----------5---5-7-7-7---7------------|
D|-----3-5/7---7------------------------|
A|-3-5----------------------------------|
D|--------------------------------------|

e|---------8-8-8---8-8-8---8-8-8---8-8-8|
B|---6---10-----10-------10------10-----|
G|-7---7--------------------------------|
D|--------------------------------------|
A|--------------------------------------|
D|--------------------------------------|

e|--------------------------------------|
B|---------6-8-6-8-8-6---6-6-6-8-6------|
G|-----5-7-------------7----------------|
D|-5-7----------------------------------|
A|--------------------------------------|
D|--------------------------------------|

e|--------------------------------------|
B|-10p8p6---10p8p6---6-6-6--------------|
G|--------7--------7-------7------------|
D|--------------------------------------|
A|--------------------------------------|
D|--------------------------------------|

e|--------------------------------------|
B|---------6-8-6-8-8-6---6-6-6-8-6-8b10~|
G|-----5-7-------------7----------------|
D|-5-7----------------------------------|
A|--------------------------------------|
D|--------------------------------------|

e|-------------------------|-----------------|-----------------|
B|-------------------------|-----------------|-----------------|
G|-5/7---10\7---5/7---5/7--|-----------------|-----------------|
D|-5/7---10\7---5/7---5/7--|-----3-5-3-------|-----3-5-3-------|
A|-3/5----8\5---3/5---3/5--|-3-5-------5-3-5-|-3-5-------5-3-5-|
D|-------------------------|-----------------|-----------------| x2


Verse
e|-----------------|-----------------|
B|-----------------|-----------------|
G|-----------------|-----------------|
D|-----------------|-----------------|
A|-----------------|-----------------|
D|-0-0-3-5-3-0-0-0-|-0-0-3-5-3-0-0-0-| x8
   . .         . .   . .         . .

Chorus
e|-------------------------|-----------------|-----------------|
B|-------------------------|-----------------|-----------------|
G|-5/7---5/7---5/7---5/7---|-----------------|-----------------|
D|-5/7---5/7---5/7---5/7---|-----3-5-3-------|-----3-5-3-------|
A|-3/5---3/5---3/5---3/5---|-3-5-------5-3-5-|-3-5-------5-3-5-|
D|-------------------------|-----------------|-----------------| x3

Solo 2

e|--------------------------------------|
B|-----------------------6---6-8-10p8p6-|
G|-----------5---5-7-7-7---7------------|
D|-----3-5/7---7------------------------|
A|-3-5----------------------------------|
D|--------------------------------------|

e|---------8-8-8-8-8-8-8----8-8-8-8-8-8-8|
B|---6---10--------------10-------------|
G|-7---7--------------------------------|
D|--------------------------------------|
A|--------------------------------------|
D|--------------------------------------|

This part has some wierd effects that I can't figure out.

Verse
e|-----------------|-----------------|
B|-----------------|-----------------|
G|-----------------|-----------------|
D|-----------------|-----------------|
A|-----------------|-----------------|
D|-0-0-3-5-3-0-0-0-|-0-0-3-5-3-0-0-0-| x8

Outro

e|--------------------------------------|
B|-----------------------6---6-8-10p8p6-|
G|-----------5---5-7-7-7---7------------|
D|-----3-5/7---7------------------------|
A|-3-5----------------------------------|
D|--------------------------------------|

e|---------8-8-8-8-8-8-8----8-8-8-8-8-8-8-8*| pinch harmonic
B|---6---10--------------10-----------------|
G|-7---7------------------------------------|
D|------------------------------------------|
A|------------------------------------------|
D|------------------------------------------|

e|---------------|-----------------|
B|3--------------|-----------------|
G|2--------------|-----------------| Lots of Feedback here
D|0--------------|-----------------|
A|0--------------|-----------------|
D|0--------------|-----------------|

End
Добавлено: 21.11.2013
Другие материалы по этой песне:
  • Аккорды и текст

Страница создана 07.07.2012
http://primanota.ru/butthole-surfers/who-was-in-my-room-last-night--chords.htm
Привет, Гость.
Предлагаем пройти революционный курс по гитаре.
Подарок от PrimaNota.Ru, забирай!