PrimaNota.ru - самый крупный в мире бесплатный архив песенных текстов, аккордов, табулатур и нот


Butthole Surfers - Sweet Loaf - текст песни, бас-таба, видео

Регистрация Запомнить меня
Войти через:  Facebook Google Twitter Vk Yandex Mail.ru

Butthole Surfers - Sweet Loaf - текст песни, бас-таба, видео

Печатать
Просмотров: 109


Tabbed By : John
e-mail: jpsteinha@yahoo.com
Tuning: standard

Let me know how it is. It might not be perfect but I thought I should put it out
there cuz I cant find it anywhere.

Chorus 1

G|-----------------|
D|-----------------|
A|------6-5-3------|
E|--5-----------3--|

Chorus 2

G|----------------------------------|
D|----------10---10-10-10-10-10-10--|
A|----------------------------------|
E|---178---------------------------|

G|----------------------------------|
D|------7-----------5-7-------------|
A|----------5-6--7------------------|
E|--5-------------------------------|

G|----------------------------------|
D|----10--10-8----8--10-10-10-8-----|
A|-------------10---------------10--|
E|--8-------------------------------|

G|----------------------------------|
D|------7-----------5-7-------------|
A|----------5-6--7------------------|
E|--5-------------------------------|

G|------17---15---------------------|
D|---------------17-15h17p15--------|
A|----------------------------------|
E|--8-------------------------------|

G|----------------------------------|
D|------7-----------5-7-------------|
A|----------5-6--7------------------|
E|--5-------------------------------|

G|----------------------------------|
D|------10---10-10-10-10-10-10------|
A|----------------------------------|
E|--8-------------------------------|


| /  slide up
|   slide down
| h  hammer-on
| p  pull-off
| ~  vibrato
| +  harmonic
| x  Mute note


Добавлено: 20.10.2013
Другие материалы по этой песне:
  • Аккорды и текст

Страница создана 27.07.2012
http://primanota.ru/butthole-surfers/sweet-loaf-chords.htm
Привет, Гость.
Предлагаем пройти революционный курс по гитаре.
Подарок от PrimaNota.Ru, забирай!