PrimaNota.ru - самый крупный в мире бесплатный архив песенных текстов, аккордов, табулатур и нот


Butthole Surfers - Moving to Florida - текст песни, таба, видео

Регистрация Запомнить меня
Войти через:  Facebook Google Twitter Vk Yandex Mail.ru

Butthole Surfers - Moving to Florida - текст песни, таба, видео

Печатать
Просмотров: 96
-------------------------------------------------------------------------------
			     MOVING TO FLORIDA - Butthole Surfers
-------------------------------------------------------------------------------

Tabbed by: Tyler J
Email: full_metal_orange AT hotmail DOT com

Tuning: Standard

E--------------------------------|
B--------------------------------|
G--------------------------------|
D-------X-X-------X-X-------X----|
A-------X-X-------X-X-------X----|
E--0-0--X-X--0-0--X-X--0-0--X-0--|

first interlude:

E--12-12-12-12-12-12-12-12-12-12-12^15^12-----------------|
B--12-12-12-12-12-12-12-12-12-12----------15-12-----------|
G-----------------------------------------------14-14-12--|
D---------------------------------------------------------|
A---------------------------------------------------------|
E---------------------------------------------------------|

E------------------------------------|
B------------------------------------|
G--12-----12---12----12-12--12b------|
D------14---------14------------14\--|
A------------------------------------|
E------------------------------------|

for the second interlude, just bend random fuzzy notes up the
fretboard.

third interlude:

E--5-5-5-5-5-5-5-5-3-3-3-3-3-3-3-3----------------------------------|
B--5-5-5-5-5-5-5-5-3-3-3-3-3-3-3-3-5-5-5-5-5-5-5-5-7-7-7-7-7-7-7-7--|
G--6-6-6-6-6-6-6-6-4-4-4-4-4-4-4-4-5-5-5-5-5-5-5-5-7-7-7-7-7-7-7-7--|
D--7-7-7-7-7-7-7-7-5-5-5-5-5-5-5-5-5-5-5-5-5-5-5-5-7-7-7-7-7-7-7-7--|
A--7-7-7-7-7-7-7-7-5-5-5-5-5-5-5-5-3-3-3-3-3-3-3-3-5-5-5-5-5-5-5-5--|
E--5-5-5-5-5-5-5-5-3-3-3-3-3-3-3-3----------------------------------|

play 4 times, then return to main riff, but w/ sloppy fills
thrown in everytime. end on:

E---------------------------|
B---------------------------|
G---------------------------|
D------X-X-----X-X----------|
A------X-X-----X-X----------|
E--0-0-X-X-0-0-X-X-0-0-0-0--|

-------------------------------------------------
THE BUTTHOLE SURFERS GUITAR/BASS TAB ARCHIVE:
http://www.islandnet.com/~mustang/1401/index.html
-------------------------------------------------
Добавлено: 29.10.2013
Другие материалы по этой песне:
  • Аккорды и текст

Страница создана 18.05.2012
http://primanota.ru/butthole-surfers/moving-to-florida-chords.htm
Привет, Гость.
Предлагаем пройти революционный курс по гитаре.
Подарок от PrimaNota.Ru, забирай!