PrimaNota.ru - самый крупный в мире бесплатный архив песенных текстов, аккордов, табулатур и нот


Butthole Surfers - Imbuya - таба, видео

Регистрация Запомнить меня
Войти через:  Facebook Google Twitter Vk Yandex Mail.ru

Butthole Surfers - Imbuya - таба, видео

Печатать
Просмотров: 101
-------------------------------------------------------------------------------
			     IMBUYA - Butthole Surfers
-------------------------------------------------------------------------------

Tabbed by: Tyler J
Email: full_metal_orange AT hotmail DOT com

Tuning: Standard

chorus:

E-----------------------|
B-----------------------|
G--8---7---6---5\---5\--|
D--8---7---6---5\---5\--|
A--6---5---4---3\---3\--|
E-----------------------|

solo: w/ wah

E---------------------------------------------|
B---------------------------------------------|
G---------------------------------------------|
D---------------------------------------------|
A----6-8-6-8-6-8b-6---6---6-8-8b-8-8-8-8-6----|
E--8----------------8---8------------------8--|

E---------------------------------------------------|
B---------------------------------------------------|
G-----8-10-8-10b-8---------8-10b-10b-10b-10br-8-----|
D--10--------------10-8-10----------------------10--|
A---------------------------------------------------|
E---------------------------------------------------|

E--13-12-11--------------------13-12-11----------------13-11--|
B-----------13-12-11--------------------13-12-11-12-13--------|
G--------------------11-10-9-8--------------------------------|
D-------------------------------------------------------------|
A-------------------------------------------------------------|
E-------------------------------------------------------------|

outro:

E-----------------|
B-----------------|
G--5-5-5--5-8-10--|
D--5-5-5--5-8-10--|
A--3-3-3--3-6--8--|
E-----------------|

-------------------------------------------------
THE BUTTHOLE SURFERS GUITAR/BASS TAB ARCHIVE:
http://www.islandnet.com/~mustang/1401/index.html
-------------------------------------------------
Добавлено: 05.08.2013
Другие материалы по этой песне:
  • Аккорды и текст

Страница создана 05.08.2013
http://primanota.ru/butthole-surfers/imbuya-chords.htm
Привет, Гость.
Предлагаем пройти революционный курс по гитаре.
Подарок от PrimaNota.Ru, забирай!