PrimaNota.ru - самый крупный в мире бесплатный архив песенных текстов, аккордов, табулатур и нот


The Buttertones - Reminiscing - таба, видео

Регистрация Запомнить меня
Войти через:  Facebook Google Twitter Vk Yandex Mail.ru

The Buttertones - Reminiscing - таба, видео

Печатать
Просмотров: 91
-------------------------------------------------------------------------------
                             REMINISCING - THE BUTTERTONES
-------------------------------------------------------------------------------
Tabbed by: SOPHIA

Tuning: STANDARD
Note: I know this may not be correct, since this is the only tab written for this song, but feel
free to edit this tab if you know the correct tabbing for this song.


e|--7---------------------6---------7---------------------6---------------6--------9-|
B|----7-----------9-9-------7---7-----7-----------9-9-------7---7-------7--------9---|
G|------8-------8-----9-6-----6---6-----8-------8-----9-6-----6---6---8--------9-----|
D|--------9-6-9---------------------------9-6-9---------------------9-------11-------|
A|-----------------------------------------------------------------------------------|
E|-----------------------------------------------------------------------------------|

e|---------11-----9-7---------------------6----------|
B|-------9------9-----7-----------9-9-------7---7----|
G|-----9------9---------8-------8-----9-6-----6---6--|
D|--11--------------------9-6-9----------------------|
A|---------------------------------------------------|
E|---------------------------------------------------|

*SINGING BEGINS*

************************************

| /   slide up
| \   slide down
| h   hammer-on
| p   pull-off
| ~   vibrato
| +   harmonic
| x   Mute note
| b   Bend
| pb  Pre-bend
| br  Bend release
| pbr Pre-bend release
| brb Bend release bend

************************************
Добавлено: 05.10.2015
Другие материалы по этой песне:
  • Аккорды и текст

Страница создана 05.10.2015
http://primanota.ru/buttertones/reminiscing-chords.htm
Привет, Гость.
Предлагаем пройти революционный курс по гитаре.
Подарок от PrimaNota.Ru, забирай!