PrimaNota.ru - самый крупный в мире бесплатный архив песенных текстов, аккордов, табулатур и нот


Butterglory - Waiting On The Guns - аккорды и текст, таба, видео

Регистрация Запомнить меня
Войти через:  Facebook Google Twitter Vk Yandex Mail.ru

Butterglory - Waiting On The Guns - аккорды и текст, таба, видео

Печатать
Просмотров: 121
Waiting On The Guns
Butterglory
		   Waiting on the Guns
Butterglory


Verses:

Verse lyrics are sung over this guitar line, repeated as necessary.


E----------------------------------------------------------------------------
B----------------------------------------------------------------------------
G----------------------------------------------------------------------------
D----------------------------------------------------------------------------
A--11--11-11--12-12-12--11--11-11--12-12-12--11--11-11--12-12-12--5-9-9-7-7--
E---0---0--0---0--0--0---0---0--0---0--0--0---0---0--0---0--0--0--0-0-0-0-0--



The chorus is more complicated, since it actually uses the top *three*
strings :)


E----------------------------------------------------------
B----------------------------------------------------------
G----------------------------------------------------------
D--9-9-9-9-9--11-11-11-11-11--14-14-14-14-13-14-13---------
A--7-7-7-7-7---9--9--9--9--9--12-12-12-12-12-12-12-13-13-13
E--0-0-0-0-0---0--0--0--0--0---0--0--0--0--0--0--0--0--0--0



I think that covers just about the whole song.


Ben McTernan
bc80233@bingsuns.cc.binghamton.edu



From bc80233@bingsuns.cc.binghamton.edu Thu Jan  4 13:56:40 1996
Received: from post-office.nevada.edu (root@post-office.nevada.edu [131.216.1.11]) by mailhost.tcs.tulane.edu (8.6.12/8.5) with ESMTP id HAA30305; Thu, 4 Jan 1996 07:56:38 -0600
Received: from bingsun1.cc.binghamton.edu (bingsun1.cc.binghamton.edu [128.226.1.2]) by post-office.nevada.edu (8.6.12/8.6.4) with ESMTP id FAA05534 for  guitar@nevada.edu>; Thu, 4 Jan 1996 05:55:35 -0800
Received: (from bc80233@localhost) by bingsun1.cc.binghamton.edu (8.6.12/8.6.9) id IAA02881; Thu, 4 Jan 1996 08:56:12 -0500
X-Sender: bc80233@bingsun1
Message-ID:  Pine.SOL.3.91.960104084023.2640A-100000@bingsun1>
MIME-Version: 1.0
Content-Type: TEXT/PLAIN; charset=US-ASCII
Status: O

Waiting on the Guns
Butterglory


Verses:

Verse lyrics are sung over this guitar line, repeated as necessary.


E----------------------------------------------------------------------------
B----------------------------------------------------------------------------
G----------------------------------------------------------------------------
D----------------------------------------------------------------------------
A--11--11-11--12-12-12--11--11-11--12-12-12--11--11-11--12-12-12--5-9-9-7-7--
E---0---0--0---0--0--0---0---0--0---0--0--0---0---0--0---0--0--0--0-0-0-0-0--



The chorus is more complicated, since it actually uses the top *three*
strings :)


E----------------------------------------------------------
B----------------------------------------------------------
G----------------------------------------------------------
D--9-9-9-9-9--11-11-11-11-11--14-14-14-14-13-14-13---------
A--7-7-7-7-7---9--9--9--9--9--12-12-12-12-12-12-12-13-13-13
E--0-0-0-0-0---0--0--0--0--0---0--0--0--0--0--0--0--0--0--0



I think that covers just about the whole song.


Ben McTernan
bc80233@bingsuns.cc.binghamton.edu     
Добавлено: 26.11.2013
Вам также может быть интересно:
Другие материалы по этой песне:
  • Аккорды и текст

Страница создана 06.07.2012
http://primanota.ru/butterglory/waiting-on-the-guns-chords.htm
Привет, Гость.
Предлагаем пройти революционный курс по гитаре.
Подарок от PrimaNota.Ru, забирай!