PrimaNota.ru - самый крупный в мире бесплатный архив песенных текстов, аккордов, табулатур и нот


Butterfly Effect - Worlds On Fire - таба, бас-таба, видео

Регистрация Запомнить меня
Войти через:  Facebook Google Twitter Vk Yandex Mail.ru

Butterfly Effect - Worlds On Fire - таба, бас-таба, видео

Печатать
Просмотров: 154
---------------------------------------------------------------------
                Worlds On Fire - The Butterfly Effect
-----------------------------------------------------------------------
Tabbed by: Kristyn Lee
Email: spot_the_village_loony_836@hotmail.com

Tuning: drop C

Ok so here's the intro. Pick these notes,listen to song
for the timing.

0:14             0:29
D|----------15-|--17-16-15-14-13-12------------|
A|-17-18-15----|---------------------10-9-10---|
F|-------------|-------------------------------|
C|-------------|-------------------------------|
G|-------------|-------------------------------|
C|-------------|-------------------------------|

0:58
D|------------------------|
A|-10--9--8--7--7^--6--5--|
F|------------------------|
C|------------------------|
G|------------------------|
C|------------------------|

1:23    
D|--4t--5t--7t--|
A|--------------|
F|--------------|
C|--------------|
G|--------------|
C|--------------|

Chorus
1:26   pick these fast
D|-----------------------------------------------|
A|-13--5---12------10--12\10\8---5---9--10-12----|
F|-x---x---x---7---x---x--x--x---x---x--x--x-----|
C|-10--2---9---x---7---9-\7-\5---2---6--7--9-----|
G|-------------5---------------------------------|
C|-----------------------------------------------|

1:59
D|-----------7--7-7h8p7----------------------/8-8-7-10---|
A|------8---------------10-8-8h10------------------------|
F|----9---9----------------------------------------------|
C|--7------------------------------12-10\6---------------|
G|-------------------------------------------------------|
C|-------------------------------------------------------|

D|----------------------------------------------------------------|
A|----------8h10/12-10--8-7---------------------------------------|
F|--7h9-7h9----------------------7---7------7h8p7-----------------|
C|---------------------------4~----4---4-----------10-5-----------|
G|-------------------------------------------------------7-8------|
C|----------------------------------------------------------------|

D|----------10-7-8----7-------------------------------------------|
A|------7h8--------10---------------------------------------------|
F|--7h9-----------------9-10------10-9-------------9---------9----|
C|-------------------------------------10------9-----9---9-----9--|
G|----------------------------7~----------10\7---7-----7---7------|
C|----------------------------------------------------------------|


Repeat Chorus
   

2:56         again, listen for timing
D|-----------------------------------------------------17--16---|
A|-17--12--17--15--12--15--12--10--9--10--12--13--15---x---x----|
F|-x---x---x---x---x---x---x---x---x--x---x---x---x----14--13---|
C|-14--9---14--12--10--12--9---7---6--7---9---10--12------------|
G|--------------------------------------------------------------|
C|--------------------------------------------------------------|

3:17
D|--------------------------------------------------------------|
A|--------------------------------------------------------------|
F|--------------------------------------------------------------|
C|--7-5-7--77---9-7-9-99---10-9-10--1010---12-10-12--10--12-----|
G|--7-5-7--77---9-7-9-99---10-9-10--1010---12-10-12--10--12-----|
C|--7-5-7--77---9-7-9-99---10-9-10--1010---12-10-12--10--12-----|


D|--------------------------------------------------------------|
A|--------------------------------------------------------------|
F|--------------------------------------------------------------|
C|--14-14-14-14-14-14-14-14--13---------------------------------|
G|--14-14-14-14-14-14-14-14--13---------------------------------|
C|--14-14-14-14-14-14-14-14--13---------------------------------|


3:25
D|----------------------------------------------------------|
A|--1313131313131313/17171717---1212121212121212/17171717---|
F|--x-x-x-x-x-x-x-x--x-x-x-x----x-x-x-x-x-x-x-x--x-x-x-x----|
C|--1010101010101010/14141414---9-9-9-9-9-9-9-9-/14141414---|
G|----------------------------------------------------------|
C|----------------------------------------------------------|

D|----------------------------------------------------------|
A|-1212121212121212/15151515--------------------------------|
F|-x-x-x-x-x-x-x-x--x-x-x-x---77777777/11\7/9/11\7/9--------|
C|-9-9-9-9-9-9-9-9/-12121212--xxxxxxxx-x--x-x-x--x-x--------|
G|----------------------------55555555/9-\5/7/9-\5/7--------|
C|----------------------------------------------------------|

D|----------------------------------------------------------|
A|--1010101010101010/121212\10/12/1313131313131313----------|
F|--x-x-x-x-x-x-x-x--x-x-x--x--x--x-x-x-x-x-x-x-x-----------|
C|--7-7-7-7-7-7-7-7-/9-9-9-\7-/9-/1010101010101010----------|
G|----------------------------------------------------------|
C|----------------------------------------------------------|


D|----------------------------------------------------------|
A|--151515\13/15/1717171717171717---------------------------|
F|--x-x-x--x--x--x-x-x-x-x-x-x-x----12--14--16--14~---------|
C|--121212\10/12/1414141414141414---x---x---x---x-----------|
G|----------------------------------10--12--14--12~---------|
C|----------------------------------------------------------|


3:58   play this a few times
D|-------12----12----12---|
A|----10----------10------|
F|--9-------9-------------|
C|------------------------|
G|------------------------|
C|------------------------|

4:45 - 5:17 is piano and trumpet

5:17     play this solo twice, 2nd time is different at the end
D|----------------------------------------------------------------|
A|-12-12---12-12--13-----12p11p9-------------------------10-12----|
F|-------------------10----------12p11p9---------9-10-12-------9--|
C|----------------------------------------10-12-------------------|
G|----------------------------------------------------------------|
C|----------------------------------------------------------------|

D|----------------------------------------------------------------|
A|--10-8---------------------------10-----------------------------|
F|-------10-9-7---------9-10-12-------7---------------------------|
C|--------------10-9-12------------------9-10-12--10-12-14--------|
G|----------------------------------------------------------------|
C|----------------------------------------------------------------|

D|----------------------------------------------------------------|
A|--------------10--9-10-12--10-12-13--10-12-13--13-12-10---------|
G|--9-10-12--10---------------------------------------------------|
C|----------------------------------------------------------------|
G|----------------------------------------------------------------|
C|----------------------------------------------------------------|

D|----------------------------------------------------------------|
A|--10-12-13--13-12-10--13-12-10----------------------------------|
F|-------------------------------9-10-12--------------------------|
C|----------------------------------------------------------------|
G|----------------------------------------------------------------|
C|----------------------------------------------------------------|

5:52
D|-------------------------------|
A|-------------------------------|
F|--9p7-----7h9-9-----7-9-7------|  x2
C|------h10--------10-------10---|
G|-------------------------------|
C|-------------------------------|

D|-------------------------------|
A|-------------------------------|
F|-10p9p7-7h9-9-7h9h10p9p7-------|   x2
C|-------------------------------|
G|-------------------------------|
C|-------------------------------|


D|-------------------------------------|
A|-------------------------------------|
F|--12p10p9-10h12-12--9h10h12p10p9-----|  x2
C|-------------------------------------|
G|-------------------------------------|
C|-------------------------------------|

D|-------------------------------------|
A|-------------------------------------|
F|--14p12p10-12h14-14--10h12h14p12p10--|  x2
C|-------------------------------------|
G|-------------------------------------|
C|-------------------------------------|

D|------------------------------|
A|---------------------12-12----|
F|--14p12p10-14p12p10-----------|
C|------------------------------|
G|------------------------------|
C|------------------------------|

6:09
D|------------------------------------------------------------------|
A|--12-12/13-13--1313\10-10-10-10/12-12-12-12-12/15-15-15-15-15\10--|
F|------------------------------------------------------------------|
C|------------------------------------------------------------------|
G|------------------------------------------------------------------|
C|------------------------------------------------------------------|

D|----------------------------------------------------------|
A|--10-10-10-10--13-13-13--12p10h12-13--12p10h12------------|
F|----------------------------------------------------------|
C|----------------------------------------------------------|
G|----------------------------------------------------------|
C|----------------------------------------------------------|

6:25
D|---------------------------------------------------------------|
A|---------------------------------------------------------------|
F|---------------------------------------------------------------|
C|--5h77-77--5h77-77--5h77-77--5h77-77--555-55-333--3p2p0--------|
G|--5h77-77--5h77-77--5h77-77--5h77-77--777-77-333-------3p2p0---|
C|--5h77-77--5h77-77--5h77-77--5h77-77--555-55-333---------------|


I missed some bits here, it's not hard to figure out though. 
D|---------------------------------------------------------------|
A|---------------------------------------------------------------|
F|---------------------------------------------------------------|
C|---------------------------------------------------------------|
G|--5h77-7-5-5h77-xxx--5h77-7-5-5h77-x-7p55-x-55-x-55-5p33--333--|
C|--5h77-7-5-5h77-xxx--5h77-7-5-5h77-x-7p55-x-55-x-55-5p33--333--|

D|-----------------------------------------------------------------|
A|-----------------------------------------------------------------|
F|-------------------------------------------------------10----10--|
C|-------------------------------------------------------x-----x---|
G|--5h77-7-5-5h77-xxx--5h77-7-5-5h77-x-7p55-x-55-55p3-33-8--3--8---|
C|--5h77-7-5-5h77-xxx--5h77-7-5-5h77-x-7p55-x-55-55p3-33----3------|




| /  slide up
| \  slide down
| h  hammer-on
| p  pull-off
| ~  vibrato
| +  harmonic
| x  Mute note
==================================================
Добавлено: 04.03.2012
Вам также может быть интересно:
Другие материалы по этой песне:
  • Аккорды и текст

Страница создана 04.03.2012
http://primanota.ru/butterfly-effect/worlds-on-fire-chords.htm
Привет, Гость.
Предлагаем пройти революционный курс по гитаре.
Подарок от PrimaNota.Ru, забирай!