PrimaNota.ru - самый крупный в мире бесплатный архив песенных текстов, аккордов, табулатур и нот


Butterfly Effect - Window And The Watcher - таба, видео

Регистрация Запомнить меня
Войти через:  Facebook Google Twitter Vk Yandex Mail.ru

Butterfly Effect - Window And The Watcher - таба, видео

Печатать
Просмотров: 114
---------------------------------------------------------------------
            Window And The Watcher - The Butterfly Effect
---------------------------------------------------------------------
Tabbed by: Kristyn Lee

hmmm.. i updated it. i think this is how its played, 
looked like it at the concert. 

Tuning: Drop C

Inro/verse
D|-------------------------------------------------------|
A|-------------------------------------------------------|
F|-44-44-44-77-77-1414-1414-1414-1111-1111---------------|x4
C|-44-44-44-77-77-1414-1414-1414-1111-1111---------------|
G|-22-22-22-55-55-1212-1212-1212-9-9--9-9----------------|
C|----------------1212-1212-1212-9-9--9-9----------------|

0:25                    chorus
D|---------------|  |-------------------------------------|
A|---------------|  |-------------------------------------|
F|---------------|x1|-------------------------------------|x2
C|-777777-444444-|  |-99999-555555--------77777-----------|
G|-555555-222222-|  |-77777-333333-555555-55555-----------|
C|---------------|  |--------------555555-----------------|

0:50
D|--------------------------------------------------------|
A|--------------------------------------------------------|
F|-44~--77~--1414~--1111~----------------------------------|
C|-44~--77~--1414~--1111~----------------------------------|
G|-22~--55~--1212~--9-9-~----------------------------------|
C|-----------1212~--9-9-~----------------------------------|

0:53                        listen for timing of these notes
D|---7-7p0-5h7p0-10p0-5-7-|   |-12-12-19-17-14------------|
A|------------------------|   |----12---------------------|
F|------------------------|X4 |---------------------------|x2
C|------------------------|   |---------------------------|
G|------------------------|   |---------------------------|
C|------------------------|   |---------------------------|

1:14
D|---------------|  |-------------------------------------|
A|---------------|  |-------------------------------------|
F|---------------|x1|-------------------------------------|x2
C|-777777-444444-|  |-99999-555555--------77777-----------|
G|-555555-222222-|  |-77777-333333-555555-55555-----------|
C|---------------|  |--------------555555-----------------|

1:39
D|---------------------|  |-------------------------------|
A|---------------------|  |-------------------------------|
F|---------------------|x4|-------------------------------|x4
C|-5h7-7--5h7-7--5-7---|  |-11h12-12--11h12-12--11-12-----|
G|---------------------|  |-------------------------------|
C|---------------------|  |-------------------------------|

heavy part
D|--------------------------------------------------------|
A|--------------------------------------------------------|
F|--------------------------------------------------------|
C|--------------------------------------------------------|
G|--------------------------10p7------------9p5-----------|
C|-9-7p0-7h9-0-12p0-7p0-9-0------10p0-7h9-0-----10p0-7h9--|

D|--------------------------------------------------------|
A|--------------------------------------------------------|
F|--------------------------------------------------------|
C|--------------------------------------------------------|
G|--------------------------10p7------------9p6-----------|
C|-9-7p0-7h9-0-12p0-7p0-9-0------10p0-7h9-0-----10p0-7h9--|

       play x3            then this
D|---------------------|----------------------------------|
A|---------------------|----------------------------------|
F|---------------------|----------------------------------|
C|---------------------|----------------------------------|
G|-7h9-9--7h9-9--7-9---|-7h9-9--7h9-5/////9999------------|
C|---------------------|----------------------------------|

then play chorus again and intro riff a few times.


| /  slide up
| \  slide down
| h  hammer-on
| p  pull-off
| ~  vibrato
| +  harmonic
| x  Mute note
==================================================================
Добавлено: 30.04.2012
Другие материалы по этой песне:
  • Аккорды и текст

Страница создана 30.04.2012
http://primanota.ru/butterfly-effect/window-and-the-watcher-chords.htm
Привет, Гость.
Предлагаем пройти революционный курс по гитаре.
Подарок от PrimaNota.Ru, забирай!