PrimaNota.ru - самый крупный в мире бесплатный архив песенных текстов, аккордов, табулатур и нот


Butterfly Effect - The Cell - текст песни, таба, видео

Регистрация Запомнить меня
Войти через:  Facebook Google Twitter Vk Yandex Mail.ru

Butterfly Effect - The Cell - текст песни, таба, видео

Печатать
Просмотров: 159
---------------------------------------------------------------
                   The Cell - The Butterfly Effect
---------------------------------------------------------------
Tabbed by: Kristyn Lee
Email: spot_the_village_loony_836@hotmail.com

Tuning: Drop C

Intro/verse
D|------------------------------|
A|------------------------------|
F|------------------------------|x8
C|--5--\\0--6666p555--5--\\0----|
G|--3--\\0--3333-333--3--\\0----|
C|--3--\\0--3333-333--3--\\0----|

pre-chorus
D|--------------------------------------|
A|--------------------------------------|
F|--------------------131313\12121212---|
C|--66-6-666-6-666-6--x-x-x--x-x-x-x----|
G|--66-6-666-6-666-6--111111\10101010---|
C|--66-6-666-6-666-6--------------------|
       .     .     .
verse
D|------------------------------|
A|------------------------------|
F|------------------------------|x6
C|--5--\\0--6666p555--5--\\0----|
G|--3--\\0--3333-333--3--\\0----|
C|--3--\\0--3333-333--3--\\0----|

pre-chorus
D|--------------------------------------|
A|--------------------------------------|
F|--------------------131313\12121212---|
C|--66-6-666-6-666-6--x-x-x--x-x-x-x----|
G|--66-6-666-6-666-6--111111\10101010---|
C|--66-6-666-6-666-6--------------------|
       .     .     .
chorus
D|--------------------------------------------------------------------|
A|--------------------------------------------------------------------|
F|--------------------------------------------------------------------|
C|-10101010101010\8-10101010101010\8-10101010101010\8-10101010101010--|
G|-10101010101010\8-10101010101010\8-10101010101010\8-10101010101010--|
C|-10101010101010\8-10101010101010\8-10101010101010\8-10101010101010--|

D|---------------------------------------------|
A|---------------------------------------------|
F|---------------------------------------------|
C|-\88888888\1-88888888\1-66666666\1-66666666--|
G|-\88888888\1-88888888\1-66666666\1-66666666--|
C|-\88888888\1-88888888\1-66666666\1-66666666--|

verse
D|------------------------------|
A|------------------------------|
F|------------------------------|x5
C|--5--\\0--6666p555--5--\\0----|
G|--3--\\0--3333-333--3--\\0----|
C|--3--\\0--3333-333--3--\\0----|
pre-chorus
D|--------------------------------------|
A|--------------------------------------|
F|--------------------131313\12121212---|
C|--66-6-666-6-666-6--x-x-x--x-x-x-x----|
G|--66-6-666-6-666-6--111111\10101010---|
C|--66-6-666-6-666-6--------------------|
       .     .     .
chorus
D|--------------------------------------------------------------------|
A|--------------------------------------------------------------------|
F|--------------------------------------------------------------------|
C|-10101010101010\8-10101010101010\8-10101010101010\8-10101010101010--|
G|-10101010101010\8-10101010101010\8-10101010101010\8-10101010101010--|
C|-10101010101010\8-10101010101010\8-10101010101010\8-10101010101010--|

D|-----------------------------------------------|
A|-----------------------------------------------|
F|-----------------------------------------------|
C|-\88888888\1-88888888\1-66666666\1-66666666----|
G|-\88888888\1-88888888\1-66666666\1-66666666----|
C|-\88888888\1-88888888\1-66666666\1-66666666----|


Quiet part
Just play this chord, listen for timing
D|--------|
A|--13----|
F|--12----|
C|--10----|
G|--------|
C|--------|

D|------------------------------------------------------|
A|----131313131313---131313131313-111111111111\999999---|
F|----121212121212---121212121212-101010101010\888888---|x2
C|--8/101010101010-8/101010101010\8-8-8-8-8-8-\666666---|
G|--8/101010101010-8/101010101010\8-8-8-8-8-8-\666666---|
C|--8/101010101010-8/101010101010\8-8-8-8-8-8-\666666---|


| .  palm mute
| /  slide up
| \  slide down
| h  hammer-on
| p  pull-off
| ~  vibrato
| +  harmonic
| x  Mute note
==========================================================
Добавлено: 25.03.2012
Другие материалы по этой песне:
  • Аккорды и текст

Страница создана 25.03.2012
http://primanota.ru/butterfly-effect/the-cell-chords.htm
Привет, Гость.
Предлагаем пройти революционный курс по гитаре.
Подарок от PrimaNota.Ru, забирай!