PrimaNota.ru - самый крупный в мире бесплатный архив песенных текстов, аккордов, табулатур и нот


Butterfly Effect - Sum Of 1 - таба, видео

Регистрация Запомнить меня
Войти через:  Facebook Google Twitter Vk Yandex Mail.ru

Butterfly Effect - Sum Of 1 - таба, видео

Печатать
Просмотров: 141
-------------------------------------------------------------
               Sum Of 1 - The Butterfly Effect
-------------------------------------------------------------
Tabbed by: Kristyn Lee
Email: spot_the_village_loony_836@hotmail.com

Tuning: Standard

Intro   
i know its bass but it sounds good on guitar 
until the actual guitar comes in.
e|------------------------------|
B|------------------------------|
G|------------------7---7-------|x3
D|--000000000000000---0---------|
A|------------------------------|
E|------------------------------|

e|-----------------------------------------------|
B|-----------------------------------------------|
G|-----------------------------------------------|
D|------7----7-----7----7-----7----7-----7---7---|
A|--555---55---555---55---555---55---555---55----|
E|-----------------------------------------------|

e|----------------------------------------------------|
B|----------------------------------------------------|
G|----------------------------------------------------|
D|------2----2------2----2------2----2------2----2----|
A|--333---33---3333---33---3333---33---3333---33------|
E|----------------------------------------------------|

e|-------------------------------------------------|
B|-------------------------------------------------|
G|-------------------------------------------------|
D|-------------------------------------------------|
A|------5----5-----5----5----5----5-----5----5-----|
E|--666---66---666---66---666--66---666---66-------|

e|--------------------------------------------------|
B|--------------------------------------------------|
G|--------------------------------------------------|
D|------7----7-----7----7-----5---5-----5---5-------|
A|--888---88---888---88---333---3---333---3---------|
E|--------------------------------------------------|


guitar    "you say...i'm only..."
e|---10~~-----15~--------------------------------------|
B|------------------10---------------------------------|
G|-----------------------------------------------------|
D|-----------------------------------------------------|
A|-----------------------------------------------------|
E|-----------------------------------------------------|

"your eyes..."
e|-----------------------------------------------------|
B|---10---10-----8-8-6-5-------------------------------|
G|---9----9------7-7-5-4-------------------------------|
D|-----------------------------------------------------|
A|-----------------------------------------------------|
E|-----------------------------------------------------|


"this heart is your heart..."
e|---------------------5-----------------------------|
B|------6----6-6-6--------6-6-5~---6----------6-5----|
G|--7-7---7--------7-5---------------7-5-5-7---------|
D|---------------------------------------------------|
A|---------------------------------------------------|
E|---------------------------------------------------|

e|---------------------------------------------------|
B|-------6-5--5h6h8----------------------------------|
G|--5h77---------------------------------------------|
D|---------------------------------------------------|
A|---------------------------------------------------|
E|---------------------------------------------------|


"how do we stop this again..."
e|------------------------------------------------------------|
B|---10-10-10-10--8/10--10-10-10-10-8h10p8~-------------------|
G|------------------------------------------9h10-10/12\10-9---|
D|------------------------------------------------------------|
A|------------------------------------------------------------|
E|------------------------------------------------------------|

"how do we stop this happening..."
e|------------------------------------------13-----------|
B|--10-10-10-10-8/10~---10h1313p10----11-10--------------|
G|---------------------------------10--------------------|
D|-------------------------------------------------------|
A|-------------------------------------------------------|
E|-------------------------------------------------------|

"lights drawn and so it begins..."
e|-------------------------------------------------------|
B|---10-10-10-10-8/10\8----------------------------------|
G|-----------------------9h10-10/12\10-9-----------------|
D|-------------------------------------------------------|
A|-------------------------------------------------------|
E|-------------------------------------------------------|

1:43
e|---13--15--12-13-10-------------------12---------------|
B|---10------10----8---13--11-10--11-10-8----------------|
G|-------------------------------------------------------|
D|-------------------------------------------------------|
A|-------------------------------------------------------|
E|-------------------------------------------------------|

2:03
e|-------------------------------------------------------|
B|--10-13-13\11-11-11\1010-------------------------------|
G|--9--12-12\10-10-10\9-9----10-12-12/15-14-12h14--------|
D|-------------------------------------------------------|
A|-------------------------------------------------------|
E|-------------------------------------------------------|

first solo
e|-----------------------------------------------------------|
B|-----------------------------------------------------------|
G|-------------------------------9-9-9h10-10-10h12-10-12p10--|
D|--5h7-7-5h7-7-5h7-7/10-7/10/12-----------------------------|
A|-----------------------------------------------------------|
E|-----------------------------------------------------------|


e|-----------------------------------------------------------|
B|---------------------13-13----13-13/15---------------------|
G|--12-12-10--12-12/14-------14------------------------------|
D|-----------------------------------------------------------|
A|-----------------------------------------------------------|
E|-----------------------------------------------------------|


e|-----------------------------------------------------------|
B|-----------------------------------------------------------|
G|--5/7-7-5/7-7-5/7-7/10-7\5--5-5-3h5-5^-3h5--5/7\5\3--------|
D|-----------------------------------------------------------|
A|-----------------------------------------------------------|
E|-----------------------------------------------------------|


e|---------------------------------------------------------|
B|---------------------------------------------------------|
G|---------------------------------------------------------|
D|--3-2-3--3-22-3h5p3p2--2-0-2-0-3--3p2-3p2-3/5------------|
A|---------------------------------------------------------|
E|---------------------------------------------------------|


e|---------------------------------------------------------|
B|---------------------------------------------------------|
G|--5/7-7-5/7-7-5/7-7/10-7\5--5-5-3h5-5^-3h5--5/7\5\3------|
D|---------------------------------------------------------|
A|---------------------------------------------------------|
E|---------------------------------------------------------|


e|---------------------------------------------------------|
B|---------------------------------------------------------|
G|----------------------5-2~-------------------------------|
D|--3p2p0-2h3--2h3-2h3-------------------------------------|
A|---------------------------------------------------------|
E|---------------------------------------------------------|


| /  slide up
| \  slide down
| h  hammer-on
| p  pull-off
| ~  vibrato
| +  harmonic
| x  Mute note
===================================================================
Добавлено: 05.07.2012
Другие материалы по этой песне:
  • Аккорды и текст

Страница создана 05.07.2012
http://primanota.ru/butterfly-effect/sum-of-1-chords.htm
Привет, Гость.
Предлагаем пройти революционный курс по гитаре.
Подарок от PrimaNota.Ru, забирай!