PrimaNota.ru - самый крупный в мире бесплатный архив песенных текстов, аккордов, табулатур и нот


Butterfly Effect - Signs - таба, видео

Регистрация Запомнить меня
Войти через:  Facebook Google Twitter Vk Yandex Mail.ru

Butterfly Effect - Signs - таба, видео

Печатать
Просмотров: 168
--------------------------------------------------------------------
                   Signs - The Butterfly Effect
--------------------------------------------------------------------
Tabbed by: Kristyn Lee
Email: spot_the_village_loony_836@hotmail.com

Tuning: Drop C

0:11
D|-------------------------------------------------------|
A|-----6h8-8/10~-------5/6----------6h8-10-8-------------|
F|----7---------------7----7~------7---------10-7~-------|
C|---7---------------7------------7----------------------|
G|-------------------------------------------------------|
C|-------------------------------------------------------|

verse, play this over and over. listen for the timing 
D|---------------------------------------------------------------|
A|---------------------------------------------------------------|
F|---------------------------------------------------------------|
C|-777777777777777-5--------------5777777777777-5----------------|
G|------------------88888888888888----------------8888888888888--|
C|---------------------------------------------------------------|
   ............... ............................ . .............

1:14    pre-chorus
D|-----------------------------------------------|
A|-----------------------------------------------|
F|-----------------------------------------------|
C|--7p5------8p5-----10p5------------------------|
G|------8p5------8p5------8p5-8/10-10p8-7p5------|
C|-----------------------------------------------|

Chorus

1:38  x8         x8
D|----------|----------|
A|----------|----------|
F|-----7----|-----5----|
C|-5h6------|-5h6------|
G|----------|----------|
C|----------|----------|
1:51
D|--------------------------------------------------------|
A|--------------------------------------------------------|
F|--151515151515151515151515\141414141414-----------------|
C|--x-x-x-x-x-x-x-x-x-x-x-x--x-x-x-x-x-x------------------|
G|--131313131313131313131313\121212121212-----------------|
C|--------------------------------------------------------|
1:57
D|--------------------------------------------------------|
A|--------------------------------------------------------|
F|--------5-----------------------------------------------|
C|--5h7h8---8p7p5p0---------------------------------------|
G|--------------------------------------------------------|
C|--------------------------------------------------------|

2:02
D|---------------------------------|
A|-----6h8-8/10~-------5/6---------|
F|----7---------------7----7~------|
C|---7---------------7-------------|
G|---------------------------------|
C|---------------------------------|

Repeat verse, pre-chorus & chorus

Bridge
3:10
D|---------------------------------------------------------------------|
A|---------------------------------------------------------------------|
F|---------------------------------------------------------------------|
C|---------------------------------------------------------------------|
G|--55-55-55-55-555-55-55-55-55-555-33-33-33-33-333-33-33-33-33/7777---|
C|--55-55-55-55-555-55-55-55-55-555-33-33-33-33-333-33-33-33-33/7777---|


D|-----------------------|
A|-----------------------|
F|-----------------------|
C|-----------------------|
G|--3101-0131-0131-0~----|
C|--3101-0131-0131-0~----|



| /  slide up
| \  slide down
| h  hammer-on
| p  pull-off
| ~  vibrato
| +  harmonic
| x  Mute note
====================================================================
Добавлено: 27.02.2012
Другие материалы по этой песне:
  • Аккорды и текст

Страница создана 27.02.2012
http://primanota.ru/butterfly-effect/signs-chords.htm
Привет, Гость.
Предлагаем пройти революционный курс по гитаре.
Подарок от PrimaNota.Ru, забирай!