PrimaNota.ru - самый крупный в мире бесплатный архив песенных текстов, аккордов, табулатур и нот


Butterfly Effect - Room Without A View - таба, видео

Регистрация Запомнить меня
Войти через:  Facebook Google Twitter Vk Yandex Mail.ru

Butterfly Effect - Room Without A View - таба, видео

Печатать
Просмотров: 171
---------------------------------------------------------------------                
           Room Without A View - The Butterfly Effect
---------------------------------------------------------------------
Tabbed by:Klee1688


Tuning: drop C

The little solo at the start has some effect going but these are the notes.
Just figure out the timing.

Intro
D|---9---9-9----------------------9-9-----9-9-12-12-12\7-----------|
A|-7---7-----12-12-12-12-12\9~--7-----7-7-----------------9~-------|
F|-----------------------------------------------------------------|
C|-----------------------------------------------------------------|
G|-----------------------------------------------------------------|
C|-----------------------------------------------------------------|

0:27
D|-------9-9-9-------9-9-12-12-12-11----------14----14----14---14--|
A|-7-7-7-------7-7-7-----------------12-12-12----12----12----12----|
F|-----------------------------------------------------------------|
C|-----------------------------------------------------------------|
G|-----------------------------------------------------------------|
C|-----------------------------------------------------------------|

D|---11---11h12p11---11---11h12p11--------9-------9-12-12-12-11----|
A|-9----9----------9----9-----------7-7-7---7-7-7------------------|
F|-----------------------------------------------------------------|
C|-----------------------------------------------------------------|
G|-----------------------------------------------------------------|
C|-----------------------------------------------------------------|

D|-------------14----14------11h12p11------11h12p11----------------|
A|-14-14-14-12----12----9-9-----------9-9--------------------------|
F|-----------------------------------------------------------------|
C|-----------------------------------------------------------------|
G|-----------------------------------------------------------------|
C|-----------------------------------------------------------------|

0:54   verse        figure out the strumming pattern
D|-----------------------------------------------------------------|
A|--7-7777-7-7777--------------------------------------------------|
F|--8-8888-8-8888--------------------------------------------------|
C|-----------------------------------------------------------------|
G|-----------------------------------------------------------------|
C|-----------------------------------------------------------------|

1:43   chorus x2
D|-----------------------------------------------------------------|
A|-----------------------------------------------------------------|
F|-----------------------------------------------------------------|
C|-6666-4h6-6666-4h6-6666-4h6-6666-22222222-66666666---------------|
G|-6666-4h6-6666-4h6-6666-4h6-6666-22222222-44444444---------------|
C|-6666-4h6-6666-4h6-6666-4h6-6666-22222222------------------------|


 play verse again then chorus


2:52  bridge
D|---------------------------------------------------------------|
A|---------------------------------------------------------------|
F|---------------------------------------------------------------|
C|-------------------------------------6-6-4-6-4-6-2-4-6-6-4-6^--|
G|-6-4-6-xx-4-6-2-4-6-4-6-xx-4-6-2-4-6---------------------------|
C|-6-4-6-xx-4-6-2-4-6-4-6-xx-4-6-2-4-6---------------------------|

D|-----------------------------------------------------------------|
A|-----------------------------------------------------------------|
F|-------------------------------------------------------------9-8-|
C|-------------------------------------6-4-6-4-6---4-9-8-9-8-9-----|
G|-6-4-6-xx-4-6-2-4-6-4-6-xx-4-6-2-4-6-----------7-----------------|
C|-6-4-6-xx-4-6-2-4-6-4-6-xx-4-6-2-4-6-----------------------------|

3:12
D|--------------------------------------|
A|--------------------------------------|
F|--------------------------------------|
C|-----------------------------66666666-|
G|-66-4-6-2-4-6--9999-22222222-44444444-|
C|-66-4-6-2-4-6--9999-22222222----------|

D|-----------------------------------------|
A|-----------------------------------------|
F|-----------------------------------------|
C|--------------------------------6-6-6-6--|
G|-66-4-6-2-4-6-4-6-9999-22222222-4-4-4-4--|
C|-66-4-6-2-4-6-4-6-9999-22222222----------|

Then play the chorus again. i know there are a few mistakes but thats pretty much how its played.



| /  slide up
| \  slide down
| h  hammer-on
| p  pull-off
| ~  vibrato
| +  harmonic
| x  Mute note
======================================================================
Добавлено: 31.03.2012
Другие материалы по этой песне:
  • Аккорды и текст

Страница создана 31.03.2012
http://primanota.ru/butterfly-effect/room-without-a-view-chords.htm
Привет, Гость.
Предлагаем пройти революционный курс по гитаре.
Подарок от PrimaNota.Ru, забирай!