PrimaNota.ru - самый крупный в мире бесплатный архив песенных текстов, аккордов, табулатур и нот


Butterfly Effect - Pure - текст песни, таба, видео

Регистрация Запомнить меня
Войти через:  Facebook Google Twitter Vk Yandex Mail.ru

Butterfly Effect - Pure - текст песни, таба, видео

Печатать
Просмотров: 151
-------------------------------------------------------------------
                  Pure - The Butterfly Effect
-------------------------------------------------------------------
Tabbed by: Kristyn Lee
Email: spot_the_village_loony_836@hotmail.com

Tuning: Drop C

Intro
D|----------|
A|----------|
F|----------|
C|----------|
G|----------|
C|--12~~~---|

verse riff
D|------------------------------------------------------|
A|------------------------------------------------------|
F|-----5-5---5-5-5---5---5---5-5---5-5--55---55p4~------|x2
C|--0------0-------0---3---3-----0-----0---0------------|
G|------------------------------------------------------|
C|------------------------------------------------------|
heavy bit
D|--------------------------------|
A|--------------------------------|
F|--5~-----5~---------5~----5~----|
C|--0~-----3~---------0~----3~----|
G|--0~-----3~---55-5--0~----3~----|
C|--0~-----3~---55-5--0~----3~----|
                .. .
 
        "you make me dirty..."
D|------------------------------------------------------|
A|------------------------------------------------------|
F|-----5-5---5-5-5---5---5---5-5---5-5--55---55p4~------|x2
C|--0------0-------0---3---3-----0-----0---0------------|
G|------------------------------------------------------|
C|------------------------------------------------------|

D|----------|
A|----------|
F|----------|
C|----------|
G|----------|
C|--12~~~---|

D|------------------------------------------------------|
A|------------------------------------------------------|
F|-----5-5---5-5-5---5---5---5-5---5-5--55---55p4~------|x1
C|--0------0-------0---3---3-----0-----0---0------------|
G|------------------------------------------------------|
C|------------------------------------------------------|

pre-chorus
D|--------------------------------|
A|--------------------------------|
F|--5~-----5~---------5~----5~----|x1
C|--0~-----3~---------0~----3~----|
G|--0~-----3~---55-5--0~----3~----|
C|--0~-----3~---55-5--0~----3~----|
                .. .

chorus   "here is nothing..."
D|-------------------------------|
A|-------------------------------|
F|-------------------------------|x2
C|---44444/77777-----------------|
G|---22222/55555--77777-55555----|
C|----------------77777-55555----|

Repeat verse, pre-chorus and chorus

Bridge   play this a heap of times
D|--------------------------------|
A|--------------------------------|
F|--------------------------------|
C|--------------------------------|
G|--9-0-0-9-0-99-0-99-0-0-9-0-99--|
C|--9-0-0-9-0-99-0-99-0-0-9-0-99--|

 then play this heaps
D|--------------------------------|
A|--------------------------------|
F|--------------------------------|
C|--------------------------------|
G|--3-0-0-3-0-33-0-33-0-0-3-0-33--|
C|--3-0-0-3-0-33-0-33-0-0-3-0-33--|


Repeat pre-chorus. 


| .  palm mute
| /  slide up
| \  slide down
| h  hammer-on
| p  pull-off
| ~  vibrato
| +  harmonic
| x  Mute note
=================================================================
Добавлено: 01.03.2012
Другие материалы по этой песне:

Страница создана 01.03.2012
http://primanota.ru/butterfly-effect/pure-chords.htm
Привет, Гость.
Предлагаем пройти революционный курс по гитаре.
Подарок от PrimaNota.Ru, забирай!