PrimaNota.ru - самый крупный в мире бесплатный архив песенных текстов, аккордов, табулатур и нот


Butterfly Effect - Phoenix - таба, бас-таба, видео

Регистрация Запомнить меня
Войти через:  Facebook Google Twitter Vk Yandex Mail.ru

Butterfly Effect - Phoenix - таба, бас-таба, видео

Печатать
Просмотров: 210
---------------------------------------------------------------------
                                  Phoenix - The Butterfly Effect
---------------------------------------------------------------------
Tabbed by: Kristyn Lee
Email: spot_the_village_loony_836@hotmail.com

Tuning: Drop C

Intro/verse

D|---------------------------------------------------|\
A|---------5-------------5^--------------------------| \
F|---------x-------------x---------------------------|  \
C|---------2-------------2---------------------------|x4 \
G|-xx-0h3-----3-xx--0h33----0h3----------------------|    \
C|-xx-0h3-----3-xx--0h33----0h3----------------------|     \
                                                     |      \x3
                                                     |      /
D|---------------------------------------------------|     /
A|-----5---------5^----------------------------------|    /
F|-----x---------x-----------------------------------|   /
C|-----2---------2-----------------------------------|x4/
G|-0h3---3--0h33---0h3-------------------------------| /
C|-0h3---3--0h33---0h3-------------------------------|/



Pre-chorus
D|---------------------------------------------------|
A|---------------------------------------------------|
F|---------------------------------------------------|
C|-33-22-2-3-5-3-2-0---------------------------------|
G|---------------------------------------------------|
C|---------------------------------------------------|

Chorus
D|---------------------------------------------------|
A|---------------------------------------------------|
F|---------------------------------------------------|x4
C|-55555/777777-333333--33-2-2-3-5-3-2-0-------------|
G|-55555/777777-333333-------------------------------|
C|-55555/777777-333333-------------------------------|

play verse again. listen to the song for timing.

then chorus again.

bridge
D|------------------------------------------------------------|
A|-----7-8-7----------7-8-7----------7-8-7---------7-8-7------|
F|------------------------------------------------------------|
C|------------------------------------------------------------|
G|-999-------9-777-----------7-555-----------5-444------------|
C|-999-------9-777-----------7-555-----------5-444------------|


"open your eyes up and see"
D|------------------------------------------------------------|
A|------------------------------------------------------------|
F|------------------------------------------------------------|
C|--5555-555-5555---------------------------------------------|
G|--5555-555-5555---------------------------------------------|
C|--5555-555-5555---------------------------------------------|


D|------------------------------------------------------------|
A|------------------------------------------------------------|
F|------------------------------------------------------------|
C|--777777/999999-555555--55-5-4-4-5-7-5-4-0------------------|
F|--777777/999999-555555--------------------------------------|
C|--777777/999999-555555--------------------------------------|



| /  slide up
| \  slide down
| h  hammer-on
| p  pull-off
| ~  vibrato
| +  harmonic
| x  Mute note
============================================================
Добавлено: 30.05.2012
Другие материалы по этой песне:
  • Аккорды и текст

Страница создана 30.05.2012
http://primanota.ru/butterfly-effect/phoenix-chords.htm
Привет, Гость.
Предлагаем пройти революционный курс по гитаре.
Подарок от PrimaNota.Ru, забирай!