PrimaNota.ru - самый крупный в мире бесплатный архив песенных текстов, аккордов, табулатур и нот


Butterfly Effect - Perception Twin - текст песни, таба, видео

Регистрация Запомнить меня
Войти через:  Facebook Google Twitter Vk Yandex Mail.ru

Butterfly Effect - Perception Twin - текст песни, таба, видео

Печатать
Просмотров: 119
-------------------------------------------------------------------
                Perception Twin - The Butterfly Effect
-------------------------------------------------------------------
Tabbed by: Kristyn Lee
Email: spot_the_village_loony_836@hotmail.com

Tuning: Drop C


D|-------------------------------|
A|-------------------------------|
F|-------------------------------|x4
C|--5/7/8\7\5/8---5/7/8\7\5/8----|
G|--3/5/6\5\3/6-0-3/5/6\5\3/6----|
C|--------------0----------------|

verse x 3

  0:20        "i know you..."
D|--------|--------------------------------------------------|
A|--------|--------------------------------------------------|
F|--------|--------------------------------------------------|
C|--------|--------7----------7-----------7----------7-------|
G|--1~----|---5555---5---5555---5----5555---5---5555---5-----|
C|--1~----|------------0----------0-----------0----------0---|
    .         ....   . . ....   . .  ....   . . ....   . .

  "we...see..."
D|----------------|
A|----------------|
F|----------------|
C|----------------|
G|---5~-----3~----|
C|----------------|

1:02
D|------------------------------------------|
A|------------------------------------------|
F|------------------------------------------|
C|------------------------------------------|
G|--66656565-66656565-66656565-66656565-----|
C|------------------------------------------|
    ........ ........ ........ ........
1:08
D|-------------------------------|
A|-------------------------------|
F|-------------------------------|x2
C|--5/7/8\7\5/8---5/7/8\7\5/8----|
G|--3/5/6\5\3/6-0-3/5/6\5\3/6----|
C|--------------0----------------|

   "distorted dreams..."
D|-------------------------------|
A|-------------------------------|
F|-------------------------------|
C|--1-1-0--1-1-0--1-1-0--1-1-0---|
G|--1-1-0--1-1-0--1-1-0--1-1-0---|
C|--1-1-0--1-1-0--1-1-0--1-1-0---|

D|-------------------------------|
A|-------------------------------|
F|-------------------------------|x2
C|--5/7/8\7\5/8---5/7/8\7\5/8----|
G|--3/5/6\5\3/6-0-3/5/6\5\3/6----|
C|--------------0----------------|
  "tortured frame is empty..."
D|-------------------------------|
A|-------------------------------|
F|-------------------------------|
C|--1-1-0--1-1-0--1-1-0--1-1-0---|
G|--1-1-0--1-1-0--1-1-0--1-1-0---|
C|--1-1-0--1-1-0--1-1-0--1-1-0---|

     "i burn i burn i burn i burn..."
D|--------------------------------------------------|
A|--------------------------------------------------|
F|--------------------------------------------------|
C|-------7----------7-----------7----------7--------|
G|--5555---5---5555---5----5555---5---5555---5------|
C|-----------0----------0-----------0----------0----|
    ....   . . ....   . .  ....   . . ....   . .
      
   "still refection disturbs you"
D|------------------------------------------|
A|------------------------------------------|
F|------------------------------------------|
C|------------------------------------------|
G|--66656565-66656565-66656565-66656565-----|
C|------------------------------------------|
    ........ ........ ........ ........
     "split in two..."
D|--------------------------------------------------|
A|--------------------------------------------------|
F|--------------------------------------------------|
C|-------7----------7-----------7----------7--------|
G|--5555---5---5555---5----5555---5---5555---5------|
C|-----------0----------0-----------0----------0----|
    ....   . . ....   . .  ....   . . ....   . .

     "beautiful Brutality..."
D|------------------------------------------|
A|------------------------------------------|
F|------------------------------------------|
C|------------------------------------------|
G|--66656565-66656565-66656565-66656565-----|
C|------------------------------------------|
    ........ ........ ........ ........

D|--------------------------------------------------|
A|--------------------------------------------------|
F|--------------------------------------------------|
C|-------7----------7-----------7----------7--------|
G|--5555---5---5555---5----5555---5---5555---5------|
C|-----------0----------0-----------0----------0----|
    ....   . . ....   . .  ....   . . ....   . .

   "try both sides..."
D|------------------------------------------|
A|------------------------------------------|
F|------------------------------------------|
C|------------------------------------------|
G|--66656565-66656565-66656565-66656565-----|
C|------------------------------------------|
    ........ ........ ........ ........

      "im yours...you're mine"
D|------------------------------------------|
A|------------------------------------------|
F|------------------------------------------|
C|------------------------------------------|
G|--66656565-66656565-66656565-66656565-----|
C|------------------------------------------|

  "aloooooone..."
D|-------------------------------|
A|-------------------------------|
F|-------------------------------|x2
C|--5/7/8\7\5/8---5/7/8\7\5/8----|
G|--3/5/6\5\3/6-0-3/5/6\5\3/6----|
C|--------------0----------------|

 "you scream like a symphony..."
D|-------------------------------|
A|-------------------------------|
F|-------------------------------|
C|--1-1-0--1-1-0--1-1-0--1-1-0---|
G|--1-1-0--1-1-0--1-1-0--1-1-0---|
C|--1-1-0--1-1-0--1-1-0--1-1-0---|

D|-------------------------------|
A|-------------------------------|
F|-------------------------------|x2
C|--5/7/8\7\5/8---5/7/8\7\5/8----|
G|--3/5/6\5\3/6-0-3/5/6\5\3/6----|
C|--------------0----------------|

 "your malfunction is needing..."
D|-------------------------------|
A|-------------------------------|
F|-------------------------------|
C|--1-1-0--1-1-0--1-1-0--1-1-0---|
G|--1-1-0--1-1-0--1-1-0--1-1-0---|
C|--1-1-0--1-1-0--1-1-0--1-1-0---|

  "you'll burn you'll burn..."
D|-------------------------------|
A|-------------------------------|
F|-------------------------------|x2
C|--5/7/8\7\5/8---5/7/8\7\5/8----|
G|--3/5/6\5\3/6-0-3/5/6\5\3/6----|
C|--------------0----------------|

2:44       "i am i am i..."
D|---------------------------------------|
A|---------------------------------------|
F|--1414-14^-14^--14^--14^-\\7-----------|
C|---x-x--x---x----x----x----x-----------|
G|--1212-12^--12^-12^--12^-\\5-----------|
C|---------------------------------------|

   "your twin with you..."
D|---------------------------------------|
A|---------------------------------------|
F|---------------------------------------|
C|--88888888-3333/10101010---------------|
G|--88888888-3333/10101010---------------|
C|--88888888-3333/10101010---------------|

   "the burning..."
D|-----------------------------------------------|
A|-----------------------------------------------|
F|-----------------------------------------------|x2
C|--1//12-0~--1//12-0~--1//12-0~--1//12-000------|
G|--1//12-0~--1//12-0~--1//12-0~--1//12-000------|
C|--1//12-0~--1//12-0~--1//12-0~--1//12-000------|
                                        ...

D|-------------|
A|-------------|
F|-------------|
C|--1-1--------|
G|--1-1--------|
C|--1-1--------|
      .

     "alone..."
D|-------------------------------|
A|-------------------------------|
F|-------------------------------|x4
C|--5/7/8\7\5/8---5/7/8\7\5/8----|
G|--3/5/6\5\3/6-0-3/5/6\5\3/6----|
C|--------------0----------------|

end on
D|-------------|
A|-------------|
F|-------------|
C|--1-1--------|
G|--1-1--------|
C|--1-1--------|
      .


| .  palm mute
| /  slide up
| \  slide down
| h  hammer-on
| p  pull-off
| ~  vibrato
| +  harmonic
| x  Mute note
============================================================
Добавлено: 02.06.2012
Другие материалы по этой песне:

Страница создана 26.02.2012
http://primanota.ru/butterfly-effect/perception-twin-chords.htm
Привет, Гость.
Предлагаем пройти революционный курс по гитаре.
Подарок от PrimaNota.Ru, забирай!