PrimaNota.ru - самый крупный в мире бесплатный архив песенных текстов, аккордов, табулатур и нот


Butterfly Effect - Final Conversation - таба, видео

Регистрация Запомнить меня
Войти через:  Facebook Google Twitter Vk Yandex Mail.ru

Butterfly Effect - Final Conversation - таба, видео

Печатать
Просмотров: 125
----------------------------------------------------------------------
                 Final Conversation - The Butterfly Effect
----------------------------------------------------------------------
Tabbed by: Kristyn Lee
Email: spot_the_village_loony_836@hotmail.com

Tuning: Drop C


Intro/verse
D|--------------------------------------------------------|
A|----------4---5-----4--5--------------------------------|
F|----6------------6-----------7----5---4---7--5--4-------|
C|--------------------------------------------------------|x4
G|-4----4----4--------------4----4----4-------------------|
C|--------------------------------------------------------|

0:43     "so close tonight.." 
D|--------------------------------------------------------|
A|--------------------------------------------------------|
F|--6~---4~--6~--4~-------6^-----6^-----------------------|
C|--6~---4~--6~--4~-----6------4--------------------------|
G|--4~---2~--4~--2~---4------2----------------------------|
C|--------------------------------------------------------|

0:56 
D|----------------------|
A|--2-----4-----5~------|
F|----------------------|
C|----------------------|
G|-----4-----4----------|
C|----------------------|

1:01         "free yourself.."
D|-------------------------------------------------------------|
A|----------------------------------------------------------7--|
F|--6-6-6-6-6--6--88-8---8-8-8-99-9-9-9--11-11-9--8--9--9h8----|
C|-------6-6--6-----6--6--6-6-6--6-6-6-6---9-----9--9-9--------|
G|-------------------------------------------------------------|
C|-------------------------------------------------------------|

D|--------------------------------------------------------------|
A|-9---9---9---9---9----7---7---7---7--7--12-12-12-12-12--------|
F|------------------------------------------11-11-11-11-11------|
C|---7---7---7---7---77---7---7---7--7--------------------------|
G|--------------------------------------------------------------|
C|--------------------------------------------------------------|

D|--------------------|
A|--9-7---------------|
F|-------8-9-8h9\6----|
C|--------------------|
G|--------------------|
C|--------------------|

1:20      
D|------------------------999---------------999---------------------|
A|---------------------999---999---------999---999------------------|
F|--6~-4~-6~-4~-----------------------------------------------------|
C|--6~-4~-6~-4~----777-----------7777-999----------9999-11-11-11-11-|
G|--4~-2~-4~-2~/4---------------------------------------------------|
C|------------------------------------------------------------------|

D|-----------------------------------------------------|
A|-------------17171717171717171717171717171717--------|
F|-------------x-x-x-x-x-x-x-x-x-x-x-x-x-x-x-x---------|
C|-11-11-11-11/14141414141414141414141414141414--------|
G|-----------------------------------------------------|
C|-----------------------------------------------------|


D|--------999-------------11-11-11h12p11---------------|
A|-----999---999-------999-----------------------------|
F|-----------------------------------------------------|
C|-777----------777-999--------------------------------|
G|-----------------------------------------------------|
C|-----------------------------------------------------|

Chorus
D|-99999999-99999999--1111111111111111-1111111111111111--|
A|-99999999-99999999--1212121212121212-1313131313131313--|
F|-66666666-xxxxxxxx--x-x-x-x-x-x-x-x--x-x-x-x-x-x-x-x---|
C|----------77777777--9-9-9-9-9-9-9-9--1010101010101010--|x2
G|-------------------------------------------------------|
C|-------------------------------------------------------|

2:04
D|-------------------------------------------------------------|
A|----------------------------------------------------------7--|
F|--6-6-6-6-6--6--88-8---8-8-8-99-9-9-9--11-11-9--8--9--9h8----|
C|-------6-6--6-----6--6--6-6-6--6-6-6-6---9-----9--9-9--------|
G|-------------------------------------------------------------|
C|-------------------------------------------------------------|

2:12
D|-999999-11-11-11-11-11-11-12-12-12-12-12-14-14-12-11----14h16-|
A|-xxxxxx-x--x--x--x--x--x--x--x--x--x--x--------------14-------|
F|-xxxxxx-x--x--x--x--x--x--x--x--x--x--x-----------------------|
C|-777777-9--9--9--9--9--9--9--9--9--9--9-----------------------|
G|--------------------------------------------------------------|
C|--------------------------------------------------------------|

2:21
D|-------999-------------999-------------------99--11h12-12h14-14-14h16-|
A|----999---999-------999---999-------------999---9---------------------|
F|----------------------------------------------------------------------|
C|-777---------777-999----------999-11-11-11----------------------------|
G|----------------------------------------------------------------------|
C|----------------------------------------------------------------------|


D|-------999-------------99-9h11p9--------------------------|
A|----999---999-------999-----------------------------------|
F|----------------------------------------------------------|
C|-777---------777-999--------------------------------------|
G|----------------------------------------------------------|
C|----------------------------------------------------------|

2:35    chorus
D|------------------------------------------------|
A|------------------------------------------------|
F|-66666666----------44444444---------------------|x2
C|-66666666-77777777-44444444-66666666------------|
G|-44444444-77777777-22222222-66666666------------|
C|----------77777777----------66666666------------|

2:54
D|-999999-11-11-11-11-11-11-12-12-12-12-12-12-14-14-14-14-14-14--|
A|-999999-11-11-11-11-11-11-12-12-12-12-12-12-14-14-14-14-14-14--|
F|---------------------------------------------------------------|
C|---------------------------------------------------------------|
G|---------------------------------------------------------------|
C|---------------------------------------------------------------|

end on
D|-----------------|
A|-----------------|
F|-----6^------6^--|
C|---6-------4-----|
G|-4-------2-------|
C|-----------------|


| ^  bend note
| /  slide up
| \  slide down
| h  hammer-on
| p  pull-off
| ~  vibrato
| +  harmonic
| x  Mute note
===================================================================
Добавлено: 25.03.2012
Другие материалы по этой песне:
  • Аккорды и текст

Страница создана 25.03.2012
http://primanota.ru/butterfly-effect/final-conversation-chords.htm
Привет, Гость.
Предлагаем пройти революционный курс по гитаре.
Подарок от PrimaNota.Ru, забирай!