PrimaNota.ru - самый крупный в мире бесплатный архив песенных текстов, аккордов, табулатур и нот


Butterfly Effect - Beautiful Mine - текст песни, таба, видео

Регистрация Запомнить меня
Войти через:  Facebook Google Twitter Vk Yandex Mail.ru

Butterfly Effect - Beautiful Mine - текст песни, таба, видео

Печатать
Просмотров: 218
Уроки эстрадного вокала в Санкт-Петербурге
--------------------------------------------------------------
               Beautiful Mine - The Butterfly Effect
--------------------------------------------------------------
Tabbed by: Kristyn Lee
Email: spot_the_village_loony_836@hotmail.com

Tuning: Drop C

Intro
D|--------------------------------------------|
A|-----------------------------6p5h6p5--------|
F|-----7-7-/-1010-----1010-----x-x------------|x2
C|-----x-x---x-x------x-x------x-x------------|
G|-----5-5-/-8-8------8-8------5-5~-----------|
C|-(0)------------(8)------(5)----------------|
verse
D|---------------------------------------------|
A|------------------------------------6p5h6p5--|
F|------7-7--7/9\7/9/10------1010-----x-x------|x6
C|------x-x--x-x-x-x-x-------x-x------x-x------|
G|------5-5--5/7\5/7/8-------8-8------5-5------|
C|--0~------------------8-8-------5-5----------|

pre-chorus
D|---------------------------------------|
A|---------------------------------------|
F|---------1010--------1010--------------|x2
C|--3-0-0--x-x---------x-x---------------|
G|--3-0-0--8-8--3-0-0--8-8--3h55555------|
C|--3-0-0-------3-0-0-------3h55555------|

Chorus
D|-------------------------------------------------------------|
A|-------------------------------------------------------------|
F|--7-7-7--7-7-7\5-5-5-5---------------------------------------|
C|--x-x-x--x-x-x-x-x-x-x---------------------------------------|
G|--5-5-5--5-5-5\3-3-3-3--0h1-1--1-1-1--0h1p0-0h1--0h1p0-0h1---|
C|------------------------0h1-1--1-1-1--0h1p0-0h1--0h1p0-0h1---|

Repeat verse and chorus


bridge
D|--------------------------------------------|
A|--------------------------------------------|
F|---10101010--12121212---10101010\999\777----|x2
C|---x-x-x-x---x-x-x-x----x-x-x-x-xxx-xxx-----|
G|-0-8-8-8-8-0-10101010-0-8-8-8-8-\777\555----|
C|-0---------0----------0---------------------|

D|-------------------------------|
A|------6------6------6------5---|
F|------x------x------x------x---|x1
C|------x------x------x------x---|
G|--5-5-5--5-5-5--5-5-5--5-5-5---|
C|--5-5----5-5----5-5----5-5-----|


D|--------------------------------------------|
A|--------------------------------------------|
F|---10101010--12121212---10101010\999\777----|x1
C|---x-x-x-x---x-x-x-x----x-x-x-x-xxx-xxx-----|
G|-0-8-8-8-8-0-10101010-0-8-8-8-8-\777\555----|
C|-0---------0----------0---------------------|


D|----------------------------------|
A|----------------------------------|
F|----------------------------------|x1
C|--7-7\\---7-7\\---7-7\\---7-7\\---|
G|--5-5\\---5-5\\---5-5\\---5-5\\---|
C|--5-5\\---5-5\\---5-5\\---5-5\\---|

D|--------------------------------------------|
A|--------------------------------------------|
F|---10101010--12121212---10101010\999\777----|x2
C|---x-x-x-x---x-x-x-x----x-x-x-x-xxx-xxx-----|
G|-0-8-8-8-8-0-10101010-0-8-8-8-8-\777\555----|
C|-0---------0----------0---------------------|


D|---------------------------|
A|---------------------------|
F|---------------------------|x1
C|---------------------------|
G|--3h5555555----3h5555555---|
C|--3h5555555----3h5555555---|

Repeat Chorus

The End


| /  slide up
| \  slide down
| h  hammer-on
| p  pull-off
| ~  vibrato
| +  harmonic
| x  Mute note
=====================================================================
Добавлено: 15.03.2012
Другие материалы по этой песне:
  • Аккорды и текст

Страница создана 15.03.2012
http://primanota.ru/butterfly-effect/beautiful-mine-chords.htm
Привет, Гость.
Предлагаем пройти революционный курс по гитаре.
Подарок от PrimaNota.Ru, забирай!