PrimaNota.ru - самый крупный в мире бесплатный архив песенных текстов, аккордов, табулатур и нот


Butterfly Effect - Aisles Of White - текст песни, таба, видео

Регистрация Запомнить меня
Войти через:  Facebook Google Twitter Vk Yandex Mail.ru

Butterfly Effect - Aisles Of White - текст песни, таба, видео

Печатать
Просмотров: 212
This is rough, but accurate enough.
These guys deserve way more attention, theyre great.
Standard Tuning - E B G D A E

Legend
h - hammer-on

Bar the third frets. Use reverb.

E|----------------------|
B|--3-------------------|
G|----5-3----3h5-5-5-5--|
D|5--------5------------|
A|----------------------|
E|----------------------| repeat 4 times.

E|----------------------------------|---------------------|
B|--4------3------6------4----------|--4------3------6----|
G|-------------------------3h5-5-5-5|---------------------|
D|5------5------5------5------------|5------5------5------|
A|----------------------------------|---------------------|
E|----------------------------------|---------------------|

E|----------------------|
B|--3-------------------|
G|----5-3----3h5-5-5-5--|
D|5--------5------------|
A|----------------------|
E|----------------------| repeat 4 times.

E|-------------------------------------------------------------------------|
B|--4------3------6------4-----------3----|--------------------------------|
G|-------------------------3h5-5-5-5---3h5---------------------------------|
D|5------5------5------5---------------------------------------------------|
A|----------------------------------------|--------------------------------|
E|----------------------------------------|--------------------------------|

E|--------------------------------3--------|
B|--4------3---------------6---------6--4--|
G|-------------3h5-5-5-5-------------------|
D|5------5---5-----------5------5----------|
A|-----------------------------------------|
E|-----------------------------------------|
Добавлено: 12.03.2012
Другие материалы по этой песне:
  • Аккорды и текст

Страница создана 12.03.2012
http://primanota.ru/butterfly-effect/aisles-of-white-chords.htm
Привет, Гость.
Предлагаем пройти революционный курс по гитаре.
Подарок от PrimaNota.Ru, забирай!