PrimaNota.ru - самый крупный в мире бесплатный архив песенных текстов, аккордов, табулатур и нот


Butterfly Effect - A.D - таба, видео

Регистрация Запомнить меня
Войти через:  Facebook Google Twitter Vk Yandex Mail.ru

Butterfly Effect - A.D - таба, видео

Печатать
Просмотров: 114
D|----------------------------------------------------------------------------------|
A|----------------------------------------------------------------------------------|
F|----------------------------------------------------------------------------------|
C|---------9-9-9---------------------------------9-9-9------------------------------|
G|--8-8-8---------------------------------8-8-8-------------------------------------|
C|----------------------------------------------------------------------------------|


D|----------------------------------------------------------------------------------|
A|----------------------------------------------------------------------------------|
F|----------------------------------------------------------------------------------|
C|---------9-9-9---------------------------------9-9-9------------------------------|
G|--8-8-8---------------------------------8-8-8-------------------------------------|
C|----------------------------------------------------------------------------------|


D|----------------------------------------------------------------------------------|
A|----------------------------------------------------------------------------------|
F|------9---------9-------------9----------10---------------------------------------|
C|--8-8-----8-8-8-----8-8-8-8-8------8-8-8------8-8-8-------------------------------|
G|----------------------------------------------------------------------------------|
C|----------------------------------------------------------------------------------|


D|----------------------------------------------------------------------------------|
A|----------------------------------------------------------------------------------|
F|-----9-----9--------9-----------9-----9-----9----------9-----9-----------5--5-----|
C|----------------------------------------------------------------------------------|
G|--5-----5-----5--5--------5--5-----5-----5-------5--5-----5-----5-----5--------5--|
C|----------------------------------------------------------------------------------|


D|----------------------------------------------------------------------------------|
A|----------------------------------------------------------------------------------|
F|---------10--10-10-10--10-------10-----10-----10-----10---------------------------|
C|--8-8-8------8--8--8---8-----8------8------8------8-------------------------------|
G|----------------------------------------------------------------------------------|
C|----------------------------------------------------------------------------------|
  ..."sickness beginning"...


D|----------------------------------------------------------------------------------|
A|----------------------------------------------------------------------------------|
F|---------10--10-10-10--10-------10-----10-----10-----10---------------------------|
C|--8-8-8------8--8--8---8-----8------8------8------8-------------------------------|
G|----------------------------------------------------------------------------------|
C|----------------------------------------------------------------------------------|


D|----------------------------------------------------------------------------------|
A|----------------------------------------------------------------------------------|
F|------------10--10-10-10---10-----------------------------------------------------|
C|--12-12-12------12-12-12---12---12-12-12-12-12-12-10-12---------------------------|
G|----------------------------------------------------------------------------------|
C|----------------------------------------------------------------------------------|

D|----------------------------------------------------------------------------------|
A|----------------------------------------------------------------------------------|
F|--10--10------10--10--9--7--7-7--5--5-5-5-5---------------------------------------|
C|----------12----------------------------------------------------------------------|
G|----------------------------------------------------------------------------------|
C|----------------------------------------------------------------------------------|


D|----------------------------------------------------------------------------------|
A|----------------------------------------------------------------------------------|
F|---------10--10-10-10--10-------10-----10-----10-----10---------------------------|
C|--8-8-8------8--8--8---8-----8------8------8------8-------------------------------|
G|----------------------------------------------------------------------------------|
C|----------------------------------------------------------------------------------|



D|----------------------------------------------------------------------------------|
A|----------------------------------------------------------------------------------|
F|------------10--10-10-----10------10--------10-----10-----------------------------|
C|--8--8--8-------8--8--8---8----8------8--8------8------8--------------------------|
G|----------------------------------------------------------------------------------|
C|----------------------------------------------------------------------------------|


D|----------------------------------------------------------------------------------|
A|----------------------------------------------------------------------------------|
F|------------9---9--9-------9-------9--9--9---9-----------9------------------------|
C|--12-12-12-----12-12--12--12--12--12-12-----12--12--12--12------------------------|
G|----------------------------------------------------------------------------------|
C|----------------------------------------------------------------------------------|


D|----------------------------------------------------------------------------------|
A|----------------------------------------------------------------------------------|
F|-----------9---9---9-------9--------9---------9----9---9--------------------------|
C|--12---12-----12--12--12--12---12--12----12--12---12--12--------------------------|
G|----------------------------------------------------------------------------------|
C|----------------------------------------------------------------------------------|


D|-------------------|--------------------|--------------------|---------------------|
A|-------------------|--------------------|--------------------|---------------------|
F|--9----------------|--9-----------------|--9-----------------|--9-------10---------|
C|--x----------------|--x-----------------|--x-----------------|--x-------x----------|
G|--7----------------|--7-----------------|--7-----------------|--7-------8----------|
C|-------------------|--------------------|--------------------|---------------------|


D|--12---------------|--12----------------|--12----------------|--12-----------------|
A|--x----------------|--x-----------------|--x-----------------|--x------------------|
F|--9----------------|--9-----------------|--9-----------------|--9-----10--10-------|
C|-------------------|--------------------|--------------------|--------x---8--------|
G|-------------------|--------------------|--------------------|--------8------------|
C|-------------------|--------------------|--------------------|---------------------|


D|-------------------|--------------------|--------------------|---------------------|
A|-------------------|--------------------|--------------------|---------------------|
F|--9----------------|--9-----------------|--9-----------------|--9-------10---------|
C|--x----------------|--x-----------------|--x-----------------|--x-------x----------|
G|--7----------------|--7-----------------|--7-----------------|--7-------8----------|
C|-------------------|--------------------|--------------------|---------------------|


D|----------------------------------------------------------------------------------|
A|----------------------------------------------------------------------------------|
F|---------9-9-9---------9-9-9---------9--------------------------------------------|
C|--8-8-8---------8-8-8---------8-8-8-----------------------------------------------|
G|----------------------------------------------------------------------------------|
C|----------------------------------------------------------------------------------|


D|----------------------------------------------------------------------------------|
A|----------------------------------------------------------------------------------|
F|---------9-9-9---------10--------10-----10----------------------------------------|
C|--8-8-8---------8-8-8------8--8------8------8-------------------------------------|
G|----------------------------------------------------------------------------------|
C|----------------------------------------------------------------------------------|


D|----------------------------------------------------------------------------------|
A|----------------------------------------------------------------------------------|
F|--7-------9-------7-------9-------7-------9---------------------------------------|
C|--x-------x-------x-------x-------x-----------------------------------------------|
G|--5--5-5--5--5-5--5--5-5--5--5-5--5---5-5-----------------------------------------|
C|----------------------------------------------------------------------------------|


D|----------------------------------------------------------------------------------|
A|----------------------------------------------------------------------------------|
F|--10-9-7--10-9-7--10-9-7----------------------------------------------------------|
C|--------------------------10-10-10-10-10-10-10------------------------------------|
G|----------------------------------------------------------------------------------|
C|----------------------------------------------------------------------------------|


D|----------------------------------------------------------------------------------|
A|----------------------------------------------------------------------------------|
F|---------9--9-9-------------------------------------------------------------------|
C|--8-8-8-----8-8--8-8---8-8-8-8-8-8-8-8--------------------------------------------|
G|----------------------------------------------------------------------------------|
C|----------------------------------------------------------------------------------|


D|----------------------------------------------------------------------------------|
A|----------------------------------------------------------------------------------|
F|------------9---9--9-------------10--------10-----10------------------------------|
C|--8--8--8-------8--8--8--8----8------8--8------8------8---------------------------|
G|----------------------------------------------------------------------------------|
C|----------------------------------------------------------------------------------|


D|----------------------------------------------------------------------------------|
A|----------------------------------------------------------------------------------|
F|------------9---9--9--------------------------------------------------------------|
C|--12-12-12-----12-12---12-12-12-12-12-12-10-12------------------------------------|
G|----------------------------------------------------------------------------------|
C|----------------------------------------------------------------------------------|


D|----------------------------------------------------------------------------------|
A|----------------------------------------------------------------------------------|
F|--10-9-7--10-9-7--10-9-7----------------------------------------------------------|
C|--------------------------10-10-10-10-10-10-10------------------------------------|
G|----------------------------------------------------------------------------------|
C|----------------------------------------------------------------------------------|

D|----------------------------------------------------------------------------------|
A|----------------------------------------------------------------------------------|
F|---------9--9-9-------------------------------------------------------------------|
C|--8-8-8-----8-8--8-8---8-8-8-8-8-8-8-8--------------------------------------------|
G|----------------------------------------------------------------------------------|
C|----------------------------------------------------------------------------------|


D|------------------------------------------------------------------------------------|
A|------------------------------------------------------------------------------------|
F|------------9---9--9--------------10--------10-----10-------------------------------|
C|--8--8--8-------8--8--8--8-----8------8--8------8------8----------------------------|
G|------------------------------------------------------------------------------------|
C|------------------------------------------------------------------------------------|


D|----------------------------------------------------------------------------------|
A|----------------------------------------------------------------------------------|
F|------------9---9--9--------------------------------------------------------------|
C|--12-12-12-----12-12---12-12-12-12-12-12-10-12------------------------------------|
G|----------------------------------------------------------------------------------|
C|----------------------------------------------------------------------------------|


D|----------------------------------------------------------------------------------|
A|----------------------------------------------------------------------------------|
F|--10-9-7--10-9-7--10-9-7----------------------------------------------------------|
C|--------------------------10-10-10-10-10-10-10------------------------------------|
G|----------------------------------------------------------------------------------|
C|----------------------------------------------------------------------------------|

D|----------------------------------------------------------------------------------|
A|----------------------------------------------------------------------------------|
F|---------9--9-9-------------------------------------------------------------------|
C|--8-8-8-----8-8--8-8---8-8-8-8-8-8-8-8--------------------------------------------|
G|----------------------------------------------------------------------------------|
C|----------------------------------------------------------------------------------|


D|------------------------------------------------------------------------------------|
A|------------------------------------------------------------------------------------|
F|------------9---9--9--------------10--------10-----10-------------------------------|
C|--8--8--8-------8--8--8--8-----8------8--8------8------8----------------------------|
G|------------------------------------------------------------------------------------|
C|------------------------------------------------------------------------------------|


D|----------------------------------------------------------------------------------|
A|----------------------------------------------------------------------------------|
F|------------9---9--9--------------------------------------------------------------|
C|--12-12-12-----12-12---12-12-12-12-12-12-10-12------------------------------------|
G|----------------------------------------------------------------------------------|
C|----------------------------------------------------------------------------------|


D|----------------------------------------------------------------------------------|
A|----------------------------------------------------------------------------------|
F|--10-9-7--10-9-7--10-9-7----------------------------------------------------------|
C|--------------------------10-10-10-10-10-10-10------------------------------------|
G|----------------------------------------------------------------------------------|
C|----------------------------------------------------------------------------------|


D|----------------------------------------------------------------------------------|
A|----------------------------------------------------------------------------------|
F|---------9--9-9-------------------------------------------------------------------|
C|--8-8-8-----8-8--8-8---8-8-8-8-8-8-8-8--------------------------------------------|
G|----------------------------------------------------------------------------------|
C|----------------------------------------------------------------------------------|


D|----------------------------------------------------------------------------------|
A|----------------------------------------------------------------------------------|
F|------------9---9--9--------------10--------10-----10-----------------------------|
C|--8--8--8-------8--8--8--8-----8------8--8------8------8--------------------------|
G|----------------------------------------------------------------------------------|
C|----------------------------------------------------------------------------------|


D|----------------------------------------------------------------------------------|
A|----------------------------------------------------------------------------------|
F|------------9---9--9---------------9------9---9--9--------------------------------|
C|--12-12-12-----12-12--12-12---12--12--12-----12-12--12--12------------------------|
G|----------------------------------------------------------------------------------|
C|----------------------------------------------------------------------------------|


D|----------------------------------------------------------------------------------|
A|----------------------------------------------------------------------------------|
F|---9--9--9--9--9--9---------------9------9---9--9---------------------------------|
C|--12-12-12-12-12-12--12-12---12--12--12-----12-12--12--12-------------------------|
G|----------------------------------------------------------------------------------|
C|----------------------------------------------------------------------------------|


D|-------------------|--------------------|--------------------|---------------------|
A|-------------------|--------------------|--------------------|---------------------|
F|--9----------------|--9-----------------|--9-----------------|--9-------10---------|
C|--x----------------|--x-----------------|--x-----------------|--x-------x----------|
G|--7----------------|--7-----------------|--7-----------------|--7-------8----------|
C|-------------------|--------------------|--------------------|---------------------|


D|-------------------|--------------------|--------------------|---------------------|
A|-------------------|--------------------|--------------------|---------------------|
F|--9----------------|--9-----------------|--9-------10--------|--9-------9----------|
C|--x----------------|--x-----------------|--x-------x---------|--x-------x----------|
G|--7----------------|--7-----------------|--7-------8---------|--7-------5----------|
C|-------------------|--------------------|--------------------|---------------------|


D|-------------------|--------------------|--------------------|---------------------|
A|-------------------|--------------------|--------------------|---------------------|
F|--9----------------|--9-----------------|--9-----------------|--9-------10---------|
C|--x----------------|--x-----------------|--x-----------------|--x-------x----------|
G|--7----------------|--7-----------------|--7-----------------|--7-------8----------|
C|-------------------|--------------------|--------------------|---------------------|

D|----------------------------------------------------------------------------------|
A|----------------------------------------------------------------------------------|
F|--9-9-9-9-9-9-9-9-9-9-9-9-9-9-9-9-------------------------------------------------|
C|----------------------------------------------------------------------------------|  x8
G|----------------------------------------------------------------------------------|
C|----------------------------------------------------------------------------------|


D|----------------------------------------------------------------------------------|
A|----------------------------------------------------------------------------------|
F|--6-6-6-6-6-6-6--7-7-7-7-7--3-3-3-3-3-3-3-3-3-3-3-3-3-3-3-3-3-3-3-3---------------|
C|----------------------------------------------------------------------------------|
G|----------------------------------------------------------------------------------|
C|----------------------------------------------------------------------------------|


D|----------------------------------------------------------------------------------|
A|----------------------------------------------------------------------------------|
F|--6-6-6-6-6-6-6--7-7-7-7-7--2-2-2-2-2-2-2-2-2-2-2-2-2-2-2-2-2-2-2-2---------------|
C|----------------------------------------------------------------------------------|
G|----------------------------------------------------------------------------------|
C|----------------------------------------------------------------------------------|


D|----------------------------------------------------------------------------------|
A|----------------------------------------------------------------------------------|
F|--6-6-6-6-6-6-6--7-7-7-7-7--3-3-3-3-3-3-3-3-3-3-3-3-3-3-3-3-3-3-3-3---------------|
C|----------------------------------------------------------------------------------|
G|----------------------------------------------------------------------------------|
C|----------------------------------------------------------------------------------|


D|----------------------------------------------------------------------------------|
A|----------------------------------------------------------------------------------|
F|--6-6-6-6-6-6-6--7-7-7-7-7/--14-14-14-14-14-14-14-14-14-14-14-14-14-14-14---------|
C|----------------------------------------------------------------------------------|
G|----------------------------------------------------------------------------------|
C|----------------------------------------------------------------------------------|


D|----------------------------------------------------------------------------------|
A|----------------------------------------------------------------------------------|
F|--14-14-14-14-14-14-14-14-14-14-14-14--15-15-15-15-15-15-15-15-15-15-15-15--------|
C|----------------------------------------------------------------------------------|
G|----------------------------------------------------------------------------------|
C|----------------------------------------------------------------------------------|


D|----------------------------------------------------------------------------------|
A|----------------------------------------------------------------------------------|
F|--12~-----------------------------14~----------------17~--------------------------|
C|----------------------------------------------------------------------------------|
G|----------------------------------------------------------------------------------|
C|----------------------------------------------------------------------------------|

D|----------------------------------------------------------------------------------|
A|----------------------------------------------------------------------------------|
F|--15~-----------------------------------12~---------------------------------------|
C|----------------------------------------------------------------------------------|
G|----------------------------------------------------------------------------------|
C|----------------------------------------------------------------------------------|


D|----------------------------------------------------------------------------------|
A|----------------------------------------------------------------------------------|
F|--14~-------------------------------------9-9-9-9-9-9--10-10-10-10-10-------------|
C|----------------------------------------------------------------------------------|
G|----------------------------------------------------------------------------------|
C|----------------------------------------------------------------------------------|


D|----------------------------------------------------------------------------------|
A|----------------------------------------------------------------------------------|
F|--15~-----------------------------------12~---------------------------------------|
C|----------------------------------------------------------------------------------|
G|----------------------------------------------------------------------------------|
C|----------------------------------------------------------------------------------|


D|----------------------------------------------------------------------------------|
A|----------------------------------------------------------------------------------|
F|--14~-------------------------------------17~-------------------------------------|
C|----------------------------------------------------------------------------------|
G|----------------------------------------------------------------------------------|
C|----------------------------------------------------------------------------------|


D|----------------------------------------------------------------------------------|
A|----------------------------------------------------------------------------------|
F|--15~-----------------------------------12~---------------------------------------|
C|----------------------------------------------------------------------------------|
G|----------------------------------------------------------------------------------|
C|----------------------------------------------------------------------------------|


D|----------------------------------------------------------------------------------|
A|----------------------------------------------------------------------------------|
F|----------------------------------------------------------------------------------|
C|----------------------------------------------------------------------------------|  x8
G|--10-12-13--10-12-13--10-12-13--10-12---------------------------------------------|
C|----------------------------------------------------------------------------------|


D|----------------------------------------------------------------------------------|
A|----------------------------------------------------------------------------------|
F|--15-15-15-15-15-15-15-15-15-15---------------------------------------------------|
C|---x--x--x--x--x--x--x--x--x--x---------------------------------------------------|
G|--13-13-13-13-13-13-13-13-13-13---------------------------------------------------|
C|----------------------------------------------------------------------------------|


D|-------------------|--------------------|--------------------|---------------------|
A|-------------------|--------------------|--------------------|---------------------|
F|--9----------------|--9-----------------|--9-----------------|--9-------10---------|
C|--x----------------|--x-----------------|--x-----------------|--x-------x----------|
G|--7----------------|--7-----------------|--7-----------------|--7-------8----------|
C|-------------------|--------------------|--------------------|---------------------|


D|-12----------------|-12-----------------|-12------13---------|--13-----------------|
A|--x----------------|--x-----------------|--x-------x---------|---x-----------------|
F|--9----------------|--9-----------------|--9------10---------|--10----10-----------|
C|-------------------|--------------------|--------------------|--------x------------|
G|-------------------|--------------------|--------------------|--------8------------|
C|-------------------|--------------------|--------------------|---------------------|

D|-12----------------|-12-----------------|-12-----------------|-12------13----------|
A|--x----------------|--x-----------------|--x-----------------|--x-------x----------|
F|--9----------------|--9-----------------|--9-----------------|--9------10----------|
C|-------------------|--------------------|--------------------|---------------------|
G|-------------------|--------------------|--------------------|---------------------|
C|-------------------|--------------------|--------------------|---------------------|


D|-/13---------------|-/15----------------|-/17----------------|-/22-----------------|
A|---x---------------|---x----------------|---x----------------|---x-----------------|
F|--10---------------|-/12----------------|-/14----------------|-/19-----------------|
C|-------------------|--------------------|--------------------|---------------------|
G|-------------------|--------------------|--------------------|---------------------|
C|-------------------|--------------------|--------------------|---------------------|


D|-------------------|--------------------|--------------------|---------------------|
A|-------------------|--------------------|--------------------|---------------------|
F|--9----------------|--9-----------------|--9-----------------|--9-------10---------|
C|--x----------------|--x-----------------|--x-----------------|--x-------x----------|
G|--7----------------|--7-----------------|--7-----------------|--7-------8----------|
C|-------------------|--------------------|--------------------|---------------------|


D|-12----------------|-12------13---------|--17--18-----20-----|-12-12--13-13--12----|
A|--x----------------|--x-------x---------|---x---x------x-----|--x--x---x--x---x----|
F|--9----------------|--9------10---------|--14--15-----17-----|--9--9--10-10---9----|
C|-------------------|--------------------|--------------------|---------------------|
G|-------------------|--------------------|--------------------|---------------------|
C|-------------------|--------------------|--------------------|---------------------|


D|-------------------|--------------------|--------------------|---------------------|
A|-------------------|--------------------|--------------------|---------------------|
F|--9----------------|--9-----------------|--9-----------------|--9-------10---------|
C|--x----------------|--x-----------------|--x-----------------|--x-------x----------|
G|--7----------------|--7-----------------|--7-----------------|--7-------8----------|
C|-------------------|--------------------|--------------------|---------------------|


D|-----------------------------------------------------------------------------------|
A|-----------------------------------------------------------------------------------|
F|-----------------------------------------------------------------------------------|
C|---------9-9-9---------------------------------9-9-9-------------------------------|
G|--8-8-8---------------------------------8-8-8--------------------------------------|
C|-----------------------------------------------------------------------------------|
Добавлено: 01.06.2012
Другие материалы по этой песне:

Страница создана 19.03.2012
http://primanota.ru/butterfly-effect/ad-chords.htm
Привет, Гость.
Предлагаем пройти революционный курс по гитаре.
Подарок от PrimaNota.Ru, забирай!