PrimaNota.ru - самый крупный в мире бесплатный архив песенных текстов, аккордов, табулатур и нот


Butterfly Effect - 7 Days - таба, видео

Регистрация Запомнить меня
Войти через:  Facebook Google Twitter Vk Yandex Mail.ru

Butterfly Effect - 7 Days - таба, видео

Печатать
Просмотров: 175
-------------------------------------------------------------------
          7 days - The Butterfly Effect
-------------------------------------------------------------------
Tabbed by: Kristyn Lee
Email: spot_the_village_loony_836@hotmail.com

Tuning: Drop C

Ok here goes! I tried my best with the solo, email me
with corrections. Other than that i think it's pretty accurate.
Oh and the 2nd verse is a little different to the 1st, just listen.

Intro
D|-----------------------------------------|
A|-----------------------------------------|
F|-----------------------------------------|x2
C|-5/7~--5/7--10~--------------------------|
G|-----------------------------------------|
C|-----------------------------------------|

verse
D|----------------------------------------------------------|
A|----------------------------------------------------------|
F|----------------------------------------------------------|
C|-10-10--99-99--10-10-99-99--------------------7-7-77-77---|
G|----------------------------10-10-1010-1010---------------|
C|----------------------------------------------------------|
          ** **        ** **         * *  * *       ** **


D|--------------------------------------------------------------|
A|--------------------------------------------------------------|
F|--------------------------------------------------------------|
C|-10-10-1010-1010-10-10-1010-1010-----------------7-7-77-77/9--|
G|---------------------------------10-10-1010-1010--------------|
C|--------------------------------------------------------------|
         * *  * *        * *  * *         * *  * *     ** *


D|--------------------------------------------------------|
A|--------------------------------------------------------|
F|--------------------------------------------------------|
C|-10-10-99-77-10-10-99-77-------------------7-7-77-7/9---|
G|---------------------------10-10-1010-1010--------------|
C|--------------------------------------------------------|
         ** **       ** **         * *  * *      ** * 

D|------------------------------------------------------------|
A|------------------------------------------------------------|
F|------------------------------------------------------------|
C|-10-10-99-77-10-10-99-1212-10-10-99-77-10-10-99-1212-12\\\--|
G|------------------------------------------------------------|
C|------------------------------------------------------------|
         ** **       ** * *        ** **       ** * *   

Chorus                                    
D|---------------------------------------------|
A|----888----888-------------------------------|
F|----999----999-------------------------------|x2
C|-77-777-77-777-33-5-5-5--55-7-7-7--7/9\7-----|
G|-77-777-77-777-33--------55------------------|
C|-77-777-77-777-33--------55------------------|


                     Verse riff again
                     Chorus x2

Bridge        "i am always on the outside..."
D|-------------------------------------------------|
A|-------------------------------------------------|
F|-------------------------------------------------|x2
C|-33--555-55555--55--777-777-7/9\7----------------|
G|-33-------------55-------------------------------|
C|-33-------------55-------------------------------|

1st solo
D|-------------------------------------------------|
A|---------------------------------------8---8-----|
F|--------------------------------9--------9-------|
C|-7/10-10------10-9-9-----797979---7979-----------|
G|---------12----------10--------------------------|
C|-------------------------------------------------|
                           ******   ****

D|-------------------------------------------------|
A|----------------8-12-10--------------------------|
F|--------------9----------------------------------|
C|-10----------------------------------------------|
G|----10-10-10-------------------------------------|
C|-------------------------------------------------|


D|------------------3333333333333333--|
A|------------------3333333333333333--|
F|-5555555555555555-xxxxxxxxxxxxxxxx--|
C|-5555555555555555-2222222222222222--|
G|-3333333333333333-2222222222222222--|
C|------------------2222222222222222--|

2nd solo
D|------------15-17-15--12-10-------12p10---12\10^---------------|
A|---10-12-13-----------------13-13--------------------10-10-13--|
F|---------------------------------------------------------------|
C|-7-------------------------------------------------------------|
G|-7-------------------------------------------------------------|
C|-7-------------------------------------------------------------|

D|-----------------15-----------15-------17----------------------|
A|-----------12h13----13--12-13----12-13-------------------------|
F|-----12h14-----------------------------------------------------|
C|--14-----------------------------------------------------------|
G|---------------------------------------------------------------|
C|---------------------------------------------------------------|

last chorus
D|--------------------------------------|
A|----888----88888----------------------|
F|----999----99999----------------------|x2
C|-77-777-77-77777--55--333-77-555-55---|
G|-77-777-77-77777--55------77----------|
C|-77-777-77-77777--55------77----------|

D|--------------------------------------|
A|--------------------------------------|
F|--------------------------------------|x2
C|--33-5-3-5-55-77-5-7--7/9\7-----------|
G|--33-3-3-3-55----5--------------------|
C|--33-3-3-3-55----5--------------------|



| /  slide up
| \  slide down
| h  hammer-on
| p  pull-off
| ~  vibrato
| +  harmonic
| x  Mute note
====================================================================
Добавлено: 07.06.2012
Другие материалы по этой песне:
  • Аккорды и текст

Страница создана 07.06.2012
http://primanota.ru/butterfly-effect/7-days-chords.htm
Привет, Гость.
Предлагаем пройти революционный курс по гитаре.
Подарок от PrimaNota.Ru, забирай!