PrimaNota.ru - самый крупный в мире бесплатный архив песенных текстов, аккордов, табулатур и нот


Butterfingers - Faculties Of The Minds - таба, видео

Регистрация Запомнить меня
Войти через:  Facebook Google Twitter Vk Yandex Mail.ru

Butterfingers - Faculties Of The Minds - таба, видео

Печатать
Просмотров: 130
Faculties of the Minds 
"Dropped-D tuning" 
Tabbed by: asno@projectburnerz.com


Verse:
Riff 1:
e|---------------------------------|---------------------------------| 
B|---------------------------------|---------------------------------| 
G|---------------------------------|---------------------------------| 
D|-----0---------------0-----------|-----0---------------0-----------| 
A|---1---1---1-0-1---0---0---3-1-0-|---1---1---1-0-1---0---0---3-1-0-| 
E|-3-------3-------1-------1-------|-3-------3-------1-------1-------| 
It's gonna be a fifty-fifty treatment
You'd be in and never outdoor
You'd be king long lost forgotten

It's gonna take a while i once remembered
There were lies i used to tell her
Hidden secrets make it rotten



Bridge:

   G        F       Bb      C 
e|---------------------------------| 
B|---------------------------------| 
G|---------------------3-------5---| 
D|-----5-------3-----3---3---5---5-| x3
A|---5---5---3---3-1-------3-------| 
E|-3-------1-----------------------| 
On and on the days go on
And on and on for what i made wrong
Fall this time the times are useless 


D C Bb A G F F G Bb G F G F G Bb F 
e|-------------------------------| 
B|-------------------------------| 
G|7-5-3-----------3-----------3--| 
D|7-5-3-3-5-3-3-5-3-5-3-5-3-5-3-3| 
A|5-3-1-3-5-3-3-5-1-5-3-5-3-5-1-3| 
E|------5-3-1-1-3---3-1-3-1-3---1| 
Have you been through wonderful minds ?! 


Chorus: 

 F G Bb G F G F G Bb F 
e|-------------------| 
B|-------------------| 
G|----3-----------3--| 
D|3-5-3-5-3-5-3-5-3-3| 
A|3-5-1-5-3-5-3-5-1-3| x3
E|1-3---3-1-3-1-3---1| 
All the things you do you would do know 
All the things you said you would say now
All the dreams come true in the meanlum 

 D C Bb A G F 
e|-----------| 
B|-----------| 
G|7-5-3------| 
D|7-5-3-7-5-3| 
A|5-3-1-7-5-3|
E|------5-3-1| 
Have you been through wonderful minds ? 

(Guitar 1 Continue Riff 1)
Riff 1 x2 then solo.

Solo: 

e|-------------------------------------------------------------|    

B|-8-8-10-10-8-6-6h8-------6-6---6-----8-8-8s10-10-10s11-13-11-| 
G|-------------------7-7-8-----8---8-7-------------------------| 
D|-------------------------------------------------------------| 
A|-------------------------------------------------------------| 
E|-------------------------------------------------------------| 


Full Lyric:

It's gonna be a fifty-fifty treatment
You'd be in and never outdoor
You'd be king long lost forgotten

It's gonna take a while i once remembered
There were lies i used to tell her
Hidden secrets make it rotten

On and on the days go on
And on and on for what i made wrong
Fall this time the times are useless
Have you been through wonderful minds ?

Shout out loud the ants are coming
There's a thought that ever was
Once again and not forever

On and on the days go on
And on and on for what i made wrong
Fall this time the times are useless
Have you been through wonderful minds ?!

All the things you do you would do know
All the things you said you would say now
All the dreams come true in the meanlum
Have you been through wonderful minds ?

Have you been through wonderful minds ?!

All the things you said you would say now
All the things you do you would do know
All the dreams come true in the meanlum
Have you been through wonderful

All the things you do you would do know
All the things you said you would say now
All the dreams come true in the meantime
Have you been through wonderful

All the things you said you would say now
All the things you like you would like
All the dreams come true in the meantime
Have you been through wonderful minds ?

It's gonna be a fifty-fifty treatment
You'd be in and never outdoor
You'd be king long lost forgotten

On and on the days go on
And on and on for what i made wrong
Fall this time the times are useless
Have you been through wonderful minds ?...

Thanks to Fjar Sidiq.
Добавлено: 06.04.2012
Другие материалы по этой песне:
  • Аккорды и текст

Страница создана 06.04.2012
http://primanota.ru/butterfingers/faculties-of-the-minds-chords.htm
Привет, Гость.
Предлагаем пройти революционный курс по гитаре.
Подарок от PrimaNota.Ru, забирай!