PrimaNota.ru - самый крупный в мире бесплатный архив песенных текстов, аккордов, табулатур и нот


Butterfingers - Everytime - бас-таба, видео

Регистрация Запомнить меня
Войти через:  Facebook Google Twitter Vk Yandex Mail.ru

Butterfingers - Everytime - бас-таба, видео

Печатать
Просмотров: 131
-------------------------------------------------------------------------------
			     EVERYTIME - Butterfingers 

-------------------------------------------------------------------------------

Tabbed By : Refugeesus
e-mail: bxy959@hotmail.com

Tuning: Standard

Intro (0:06)

G|-----------------------------| 
D|------------4-----------4----| 
A|-----------------------------|    x 1
E|--2---0-2-0----2--0-2-0---3--| 

Verse (0:11)
                                          because im manic
G|-----------------------------|           |------------|
D|----4-------4----4-------4---|           |------------|
A|-----------------------------|    x many |------------|  
E|--2---0-2-0----2---0-2-0---3-|           |-0--0--0--0-|

Chorus (1:25)

G|----------------------------------------------|
D|----------------------------------------------|
A|----/9----------/9------/9-----------/9(10)---| x 2 last note changes
E|--2-------0-2-0-------2-------0-2-0-----3-----|      to (10) second time


A little bit of change throughout listen and play along

Enjoy!

| /  slide up
| \  slide down
| h  hammer-on
| p  pull-off
| ~  vibrato
| +  harmonic
| x  Mute note
===============================================================================
Добавлено: 16.06.2012
Другие материалы по этой песне:
  • Аккорды и текст

Страница создана 16.06.2012
http://primanota.ru/butterfingers/everytime-chords.htm
Привет, Гость.
Предлагаем пройти революционный курс по гитаре.
Подарок от PrimaNota.Ru, забирай!