PrimaNota.ru - самый крупный в мире бесплатный архив песенных текстов, аккордов, табулатур и нот


Butterfingers - Delirium - таба, видео

Регистрация Запомнить меня
Войти через:  Facebook Google Twitter Vk Yandex Mail.ru

Butterfingers - Delirium - таба, видео

Печатать
Просмотров: 38
INTRO
[repeat x4]
||------------------------|------------------------||
||------------------------|------------------------||
||------------------------|------------------------||
||-7-h9--9--7-11-11-11--7-|-7-h9--9--7-11-11-11----||
||------------------------|------------------------||
||------------------------|------------------------||
||                        |                        ||
||------------------------|------------------------||
||------------------------|------------------------||
||------------------------|------------------------||
||-7----------------------|-7----------------------||
||-7----------------------|-7----------------------||
||-7----------------------|-7----------------------||

[repeat x2]
||------------------------|------------------------||------------------------|------------------------|
||------------------------|------------------------||------------------------|------------------------|
||------------------------|------------------------||------------------------|------------------------|
||-7-h9--9--7-11-11-11--7-|-7-h9--9--7-11-11-11----||-7-h9--9--7-11-11-11-12-|12-11-11--9--9-11-11--7-|
||------------------------|------------------------||------------------------|------------------------|
||------------------------|------------------------||------------------------|------------------------|
|                         |                        ||                        |                        |
||------------------------|------------------------||------------------------|------------------------|
||------------------------|------------------------||------------------------|------------------------|
||-7----------------------|-2--------0-------------||-7----------------------|-4--------0-------------|
||-7----------------------|-2--------0-------------||-7----------------------|-4--------0-------------|
||-7----------------------|-2--------0-------------||-7----------------------|-4--------0-------------|

VERSE
||------------------------|------------------------||------------------------|------------------------|
||------------------------|------------------------||------------------------|------------------------|
||------------------------|------------------------||------------------------|------------------------|
||-7--7-------------------|-------0-------0--------||-7--7-------------------|-2--0--2--2-------------|
||-7--7-------------------|----0-------0-----------||-7--7-------------------|-2--0--2--2-------------|
||-7--7-------------------|-0-------0--------------||-7--7-------------------|-2--0--2--2-------------|
Ascertain things got left in vagueness
Cause it ain't over 'til it's over
For reasons that I have not discovered
I feel full of beans

||------------------------|------------------------||------------------------|------------------------|
||------------------------|------------------------||------------------------|------------------------|
||------------------------|------------------------||------------------------|------------------------|
||-7--7--7--7--7--7--7--7-|-2--2--2--0------0------||-7--7--7--7--7--7--7--7-|-2--0--2--2-------------|
||-7--7--7--7--7--7--7--7-|-2--2--2--0------0------||-7--7--7--7--7--7--7--7-|-2--0--2--2-------------|
||-7--7--7--7--7--7--7--7-|-2--2--2--0------0------||-7--7--7--7--7--7--7--7-|-2--0--2--2-------------|
Waylay outside unseen trouble
Where means are often passing phases
Even-handed young and happy
Wipe out all my sins

CHORUS
||------------------------|------------------------||------------------------|------------------------|
||------------------------|------------------------||------------------------|------------------------|
||------------------------|------------------------||------------------------|------------------------|
||-4-----4--2------2------|-0----0--7------7-------||-2--2--2--2--2--2--2--2-|-2--2--2--2--2--2--2--2-|
||-4-----4--2------2------|-0----0--7------7-------||-2--2--2--2--2--2--2--2-|-2--2--2--2--2--2--2--2-|
||-4-----4--2------2------|-0----0--7------7-------||-2--2--2--2--2--2--2--2-|-2--2--2--2--2--2--2--2-|
You know I cared
You know I cared
You know I cared
I'd care, I'll care

Forever

VERSE
||------------------------|------------------------||------------------------|------------------------|
||------------------------|------------------------||------------------------|------------------------|
||------------------------|------------------------||------------------------|------------------------|
||-7--7-------------------|-------0-------0--------||-7--7-------------------|-2--0--2--2-------------|
||-7--7-------------------|----0-------0-----------||-7--7-------------------|-2--0--2--2-------------|
||-7--7-------------------|-0-------0--------------||-7--7-------------------|-2--0--2--2-------------|
Send up all the ones before you
Someday I will soon recover
Breed a star of broken idols
Imagine what it'll be

||------------------------|------------------------||------------------------|------------------------|
||------------------------|------------------------||------------------------|------------------------|
||------------------------|------------------------||------------------------|------------------------|
||-7--7--7--7--7--7--7--7-|-2--2--2--0------0------||-7--7--7--7--7--7--7--7-|-2--0--2--2-------------|
||-7--7--7--7--7--7--7--7-|-2--2--2--0------0------||-7--7--7--7--7--7--7--7-|-2--0--2--2-------------|
||-7--7--7--7--7--7--7--7-|-2--2--2--0------0------||-7--7--7--7--7--7--7--7-|-2--0--2--2-------------|
Slip inside my sheltered corner
I think I'm fine and I'm never healthy
Criticize my table manners
I feel full of beans

BRIDGE
||------------------------|------------------------|------------------------|------------------------||
||------------------------|------------------------|------------------------|------------------------||
||------------------------|------------------------|------------------------|------------------------||
||----------7-h9-12-11----|------------------------|------------------------|------------------------||
||------------------------|------------------------|------------------------|------------------------||
||------------------------|------------------------|------------------------|------------------------||
||                        |                        |
||------------------------|------------------------|------------------------|------------------------||
||------------------------|------------------------|------------------------|------------------------||
||------------------------|------------------------|------------------------|------------------------||
||-7----------------------|------------------------|------------------------|------------------------||
||-7----------------------|------------------------|------------------------|------------------------||
||-7----------------------|------------------------|-0--0--0--0--0--0--0--0-|-0--0--0--0--0--0--0--0-||
                                                   pm.  .  .  .  .  .  .  .   .  .  .  .  .  .  .  . 
Chain all my ankles to the sky
Sure I'll soon know before I leave
||------------------------|------------------------|------------------------|------------------------||
||------------------------|------------------------|------------------------|------------------------||
||------------------------|------------------------|------------------------|------------------------||
||----------7-h9-12-11----|------------------------|------------------------|------------------------||
||------------------------|------------------------|------------------------|------------------------||
||------------------------|------------------------|------------------------|------------------------||
||                        |                        |
||------------------------|------------------------|------------------------|------------------------||
||------------------------|------------------------|------------------------|------------------------||
||------------------------|------------------------|------------------------|------------------------||
||-7----------------------|------------------------|-0-----0-----0-----0----|-0-----0-----0-----0----||
||-7----------------------|------------------------|-0-----0-----0-----0----|-0-----0-----0-----0----||
||-7----------------------|------------------------|-0-----0-----0-----0----|-0-----0-----0-----0----||
                                                   pm.  .  .  .  .  .  .  .   .  .  .  .  .  .  .  . 
I promise you I'll give it

OUTRO
||------------------------|------------------------||
||------------------------|------------------------||
||------------------------|------------------------||
||-7-----------2----------|-0----------------------||
||-7-----------2----------|-0----------------------||
||-7-----------2----------|-0----------------------||
Up somehow
I'm going down down down
I'm going down down down
I'm going down down down
Hey!
Добавлено: 03.12.2015
Другие материалы по этой песне:
  • Аккорды и текст

Страница создана 03.12.2015
http://primanota.ru/butterfingers/delirium-chords.htm
Привет, Гость.
Предлагаем пройти революционный курс по гитаре.
Подарок от PrimaNota.Ru, забирай!