PrimaNota.ru - самый крупный в мире бесплатный архив песенных текстов, аккордов, табулатур и нот


Butterfield Blues Band - I Got A Mind To Give Up Living - бас-таба, видео

Регистрация Запомнить меня
Войти через:  Facebook Google Twitter Vk Yandex Mail.ru

Butterfield Blues Band - I Got A Mind To Give Up Living - бас-таба, видео

Печатать
Просмотров: 99
Уроки эстрадного вокала в Санкт-Петербурге
I Got A Mind To Give Up Living.btab
Paul Butterfield Blues Band
TablEdited by Poppamies
Tuning : E A D G 	Time Signature: 6/8

 |           |            |           |            |           |            
|------------------------|--------------------0---|--------------------0---|
|------------------------|------------1-----------|----------------1-------|
|------------------------|3-------3---------------|3-------3---3-----------|
|------------------------|------------------------|------------------------|

 |           |            |           |            |           |            
|--------------------5---|--------------------5---|--------------------0---|
|3-------3---6-----------|3-------3---3---6-------|------------1-----------|
|------------------------|------------------------|3-------3---------------|
|------------------------|------------------------|------------------------|

 |           |            |           |            |           |            
|--------------------0---|--------------------0---|--------------------0---|
|----------------1-------|------------1-----------|----------------1-------|
|3-------3---3-----------|3-------3---------------|3-------3---3-----------|
|------------------------|------------------------|------------------------|

 |           |            |           |            |           |            
|--------------------5---|--------------------5---|--------------------5---|
|3-------3---6-----------|3-------3---3---6-------|3-------3---6-----------|
|------------------------|------------------------|------------------------|
|------------------------|------------------------|------------------------|

 |           |            |           |            |           |            
|--------------------5---|--------------------0---|--------------------0---|
|3-------3---3---6-------|------------1-----------|----------------1-------|
|------------------------|3-------3---------------|3-------3---3-----------|
|------------------------|------------------------|------------------------|

 |           |            |           |            |           |            
|--------------------0---|------------------------|0-------0---0-----------|
|------------1-----------|----------------3---4---|------------------------|
|3-------3---------------|3-------3---3-----------|------------------------|
|------------------------|------------------------|------------------------|

 |           |            |           |            |           |            
|------------0---0-------|------------------------|--------------------0---|
|0-------------------4---|3-------3---3-----------|------------3-----------|
|------------------------|------------------------|3-------3---------------|
|------------------------|------------------------|------------------------|

 |           |            |           |            |           |            
|--------------------0---|--------------------5---|------------------------|
|------------1-----------|3-------3---6-----------|----------------3---4---|
|3-------3---------------|------------------------|3-------3---3-----------|
|------------------------|------------------------|------------------------|

 |           |            |           |     I've   got a mind to give up... 
|0-------0-------0---0---|--------------------0---|--------------------0---|
|------------3-----------|------------1-----------|----------------1-------|
|------------------------|3-------3---------------|3-------3---3-----------|
|------------------------|------------------------|------------------------|

 |           |            |           |            |           |            
|--------------------5---|--------------------5---|--------------------0---|
|3-------3---6-----------|3-------3---3---6-------|------------1-----------|
|------------------------|------------------------|3-------3---------------|
|------------------------|------------------------|------------------------|

 |           |            |           |            |           |     I've   
|--------------------0---|--------------------0---|--------------------0---|
|----------------1-------|------------1-----------|----------------1-------|
|3-------3---3-----------|3-------3---------------|3-------3---3-----------|
|------------------------|------------------------|------------------------|

 got a mind to give up... |           |            |           |            
|--------------------5---|--------------------5---|--------------------5---|
|3-------3---6-----------|3-------3---3---6-------|3-------3---6-----------|
|------------------------|------------------------|------------------------|
|------------------------|------------------------|------------------------|

 |           |            |           |            |           |            
|--------------------5---|--------------------0---|--------------------0---|
|3-------3---3---6-------|------------1-----------|----------------1-------|
|------------------------|3-------3---------------|3-------3---3-----------|
|------------------------|------------------------|------------------------|

 |           |            |           |            |   Pick me a tomb-      
|--------------------0---|------------------------|------------------------|
|------------0/1---------|------------------------|------------------------|
|3-------3---------------|3-------3---3-----------|------------------------|
|------------------------|----------------1---2---|3-------3---3-----------|

 stone...    |            |           |            |           |            
|------------0---0-------|------------------------|--------------------0---|
|0-------------------4---|3-------3---3-----------|------------3-----------|
|------------------------|------------------------|3-----------------------|
|------------------------|------------------------|------------------------|

 |           |            |           |            |           |            
|--------------------0---|------------1-------5---|------------------------|
|------------1-----------|3-------3---------------|----------------3---4---|
|3-------3---------------|------------------------|3-------3---3-----------|
|------------------------|------------------------|------------------------|

 |           |     Well   I read your letter...    |           |            
|0-------0---------------|--------------------0---|--------------------0---|
|------------3---4---5---|------------1-----------|----------------1-------|
|------------------------|3-------3---------------|3-------3---3-----------|
|------------------------|------------------------|------------------------|

 |           |            |           |            |           |            
|------------1-------5---|----------------1---5---|--------------------0---|
|3-------3---------------|3-------3---3-----------|------------1-----------|
|------------------------|------------------------|3-------3---------------|
|------------------------|------------------------|------------------------|

 |           |            |           |            |   Oooh,   when I       
|--------------------0---|--------------------0---|--------------------0---|
|----------------1-------|------------1-----------|----------------1-------|
|3-------3---3-----------|3-------3---------------|3-------3---3-----------|
|------------------------|------------------------|------------------------|

 read your letter this... |           |            |           |            
|------------1-------5---|----------------1---5---|------------1-------5---|
|3-------3---------------|3-------3---3-----------|3-------3---------------|
|------------------------|------------------------|------------------------|
|------------------------|------------------------|------------------------|

 |           |            |           |            |           |            
|----------------1---5---|--------------------0---|--------------------0---|
|3-------3---3-----------|------------1-----------|----------------1-------|
|------------------------|3-------3---------------|3-------3---3-----------|
|------------------------|------------------------|------------------------|

 |           |            |           |            |           |   That's   
|--------------------0---|------------------------|0-----------0-----------|
|------------1-----------|----------------3---4---|------------------------|
|3-------3---------------|3-------3---3-----------|------------------------|
|------------------------|------------------------|------------------------|

 when I decided...        |           |            |           |            
|------------0-----------|------------------------|--------------------0---|
|0-------------------4---|3-----------3-----------|------------3-----------|
|------------------------|------------------------|3-----------------------|
|------------------------|------------------------|------------------------|

 |           |            |           |            |           |            
|------------------------|------------1-------5---|------------------------|
|------------1-------5---|3-------3---------------|----------------3---4---|
|3-------3---------------|------------------------|3-------3---3-----------|
|------------------------|------------------------|------------------------|

 |           |            S O L O     |            |           |            
|0-------0---------------|--------------------0---|--------------------0---|
|------------3---4---5---|------------1-----------|----------------1-------|
|------------------------|3-------3---------------|3-------3---3-----------|
|------------------------|------------------------|------------------------|

 |           |            
|------------1-------5---|
|3-------3---------------|
|------------------------|
|------------------------|


Created with TablEdit http://www.tabledit.com/


=====
Jan Bjorklund, Finland

     
Добавлено: 20.06.2013
Другие материалы по этой песне:
  • Аккорды и текст

Страница создана 20.06.2013
http://primanota.ru/butterfield-blues-band/i-got-a-mind-to-give-up-living-chords.htm
Привет, Гость.
Предлагаем пройти революционный курс по гитаре.
Подарок от PrimaNota.Ru, забирай!