PrimaNota.ru - самый крупный в мире бесплатный архив песенных текстов, аккордов, табулатур и нот


Butcher Babies - C8h18 Gasoline - таба, видео

Регистрация Запомнить меня
Войти через:  Facebook Google Twitter Vk Yandex Mail.ru

Butcher Babies - C8h18 Gasoline - таба, видео

Печатать
Просмотров: 65
Song Title: "C8H18 (Gasoline)"
Artist: Butcher Babies
Tuning: D# A# F A# D# G# C F (low-to-high)

IMPORTANT! (About the tuning)
Tuning works best on a 7 or 8-string.For 7-string players, just drop the low B half a step, then tune all the
other strings up half a step.  Ignore the low D# that I show above.  The guitarist for Butcher Babies uses an
8-string, so the tabs will show 8 lines for 8 strings.  I don't exactly know what the lowest string
is tuned to, I'm just guessing D# (for a "double drop tuning"), but it's not used in this 
song.  I learned this song on my 7-string and it works fine.  It CAN be played on a 6-string, but it won't
sound as good plugged in.  If you're using a 6-string, the tuning is Drop A#, but your 3rd string will be
tuned to G# instead of G (as shown above).

KEY:
Palm Mute = * (below lines)
Hammer-On = h
Pull-Off = p

Intro (2 guitar parts)

Guitar 1
-|---------------------------------------------------|------------------|
-|---------------------------------------------------|------------------|
-|---------------------------------------------------|------------------|
-|-7-7-7-6-6-6-3-3-3-11-11-10-10-6-6-6---------------|-----7-7-7-6-6-6--|
-|---------------------------------------------------|------------------|
-|---------------------------------------------------|------------------|
-|---------------------------------------------------|------------------|
-|---------------------------------------------------|-x3---------------|
   * * * * * * * * *  *  *  *  *  * * *                    * * * * * *

Guitar 2
-----------------------------------------------------------|
-----------------------------------------------------------|
-----------------------------------------------------------|
-----------------------------------------------------------|
----------7-7-7----------7-7-7-7-7----------7-7-7-7-7-7-7--|
----------5-5-5----------5-5-5-5-5----------5-5-5-5-5-5-5--|
-----------------------------------------------------------|
-----------------------------------------------------------|
                         * * *              * * *

Verse Breakdown
---------------------------------------------------------------------------------|
---------------------------------------------------------------------------------|
---------------------------------------------------------------------------------|
---------------------------------------------------------------------------------|
---------------------------------------------------------------------------------|
---------------------------------------------------------------------------------|
--0--0-0--0-0--0--0-0--0-0-0-000-000-000--0-0-0-0-0-0-0-0-0-0-0-0-0-000-000-000--|
---------------------------------------------------------------------------------|     x2
                             *** *** ***  * * * * * * * * * * * * * *** *** ***

Verse
--------------------------------------------------|
--------------------------------------------------|
--------------------------------------------------|
--------------------------------------------------|
--------------------------------------------------|
-00000000-5h6p5-00000000000000-5h6p5-00-3h4p3-00--|
-00000000-------00000000000000-------00-------00--|
--------------------------------------------------|
 ********       **************       **       **

------------------------------------|
------------------------------------|
------------------------------------|
------------------------------------|
------------------------------------|
-00000000-5h6p5-000000-1-1-1-1-1-1--|
-00000000-------000000-1-1-1-1-1-1--|
------------------------------------|
 ********       ****** * * * * * *

(played x2)


Pre-Chorus
------------------------------------------------------------------------------------|
------------------------------------------------------------------------------------|
------------------------------------------------------------------------------------|
-7-7-7-6-6-6-3-3-3-11-11-10-10-6-6-6------------------------------------------------|
------------------------------------------------------------------------------------|
---------------------------------------------------5-5-5-5-5-5-5-5-8-8-8-8-8-8-8-8--|
---------------------------------------------------5-5-5-5-5-5-5-5-8-8-8-8-8-8-8-8--|
------------------------------------------------------------------------------------|
 * * * * * * * * *  *  *  *  * * * *               * * * * * * * * * * * * * * * *

Chorus
----------------------------------------------------------------------------------|
----------------------------------------------------------------------------------|
----------------------------------------------------------------------------------|
----------------------------------------------------------------------------------|
-----------------------------------------------------------------------7h8-5h6-3--|
-0--0-0--0-0--0--0-0--0-0--0--0-0--0-0--0--0-0--0-0--8--8-8--8-8--8--8------------|
-0--0-0--0-0--0--0-0--0-0--0--0-0--0-0--0--0-0--0-0--8--8-8--8-8--8--8------------|
----------------------------------------------------------------------------------|
 *  * *  * *  *  * *  * *  *  * *  * *  *  * *  * *  *  * *  * *  *  *

----------------------------------------------------------------------------|
----------------------------------------------------------------------------|
----------------------------------------------------------------------------|
----------------------------------------------------------------------------|
----------------------------------------------------------------------------|
-8-8--8-8--8--8-8--8-8--5--5-5--5-5--5--5-5--5-5--5--5-5--5-5--5--5-5--5-5--|
-8-8--8-8--8--8-8--8-8--5--5-5--5-5--5--5-5--5-5--5--5-5--5-5--5--5-5--5-5--|
----------------------------------------------------------------------------|
 * *  * *  *  * *  * *  *  * *  * *  *  * *  * *  *  * *  * *  *  * *  * *

-----------------------------------------------------|
-----------------------------------------------------|
-----------------------------------------------------|
-----------------------------------------------------|
-----------------------------------------------------|
-----------------------------------------------------|
-3--3-3--3-3--3--3-3--3-3--3--3-3--3-3--3--3-3--3-3--|
-----------------------------------------------------|
 *  * *  * *  *  * *  * *  *  * *  * *  *  * *  * *

1st Post-Chorus
------------------------------|
------------------------------|
------------------------------|
------------------------------|
-7------------6------------3--|
-5------------4------------1--|
------------------------------|
------------------------------|

Verse Breakdown

Verse

Pre-Chorus

Chorus (x2)

2nd Post Chorus
----------------------------|
----------------------------|
----------------------------|
----------------------------|
-7-7-7-7-6-6-6-6-3-3-3-3-3--|
-5-5-5-5-4-4-4-4-1-1-1-1-1--|
----------------------------|
----------------------------|
 * * * * * * * * * * * *

Bridge Part 1 (Breakdown)
-----------------------------------------------|
-----------------------------------------------|
-----------------------------------------------|
-----------------------------------------------|
-----------------------------------------------|
-0-0-0-1-0-1-0-0-0-1-0-1-0-0-0-1-0-1-0-0-0-----|
-0-0-0-1-0-1-0-0-0-1-0-1-0-0-0-1-0-1-0-0-0-1b--|
-----------------------------------------------|
 * * *   *   * * *   *   * * *   *   * * *

----------------------------------------------|
----------------------------------------------|
----------------------------------------------|
----------------------------------------------|
----------------------------------------------|
-0-0-0-1-0-1-0-0-0-1-0-1-0-0-0-1-0-1-0-0-0-1--|
-0-0-0-1-0-1-0-0-0-1-0-1-0-0-0-1-0-1-0-0-0-1--|
----------------------------------------------|
 * * *   *   * * *   *   * * *   *   * * *

Bridge Part 2 (Another breakdown.  How is this not considered deathcore!?)
-|------------------------------------|-----|
-|------------------------------------|-----|
-|------------------------------------|-----|
-|------------------------------------|-----|
-|------------------------------------|-----|
-|------------------------------------|-----|
-|-0--0--0--0----000-000-000----------|-----|
-|------------------------------------|-x4--|
                 *** *** ***

Repeat Intro

Chorus (x2)

Verse Breakdown


Finished!  Enjoy!

Tabbed by Alex.  Original song can be found on Goliath.  I take no credit in the writing of this song, and am
responsible only for this tablature.  Copyright 2013, Century Media Records.
Добавлено: 06.12.2015
Другие материалы по этой песне:
  • Аккорды и текст

Страница создана 06.12.2015
http://primanota.ru/butcher-babies/c8h18-gasoline-chords.htm
Привет, Гость.
Предлагаем пройти революционный курс по гитаре.
Подарок от PrimaNota.Ru, забирай!