PrimaNota.ru - самый крупный в мире бесплатный архив песенных текстов, аккордов, табулатур и нот


Butch Walker - This Is The Sweetest Little Song - текст песни, таба, видео

Регистрация Запомнить меня
Войти через:  Facebook Google Twitter Vk Yandex Mail.ru

Butch Walker - This Is The Sweetest Little Song - текст песни, таба, видео

Печатать
Просмотров: 184
Авторы музыки: Butch Walker
Авторы текста: Butch Walker
Butch Walker - The Sweetest Little Song


This is the intro to the song.  I dont know if it is right, but it sounds right to me.


Track 1
     E  E  E  E  Q.     E     Q    Q.     E  Q       H.           E  E   
E||--------------0------0--|--0-------------------|--0------------------|
B||--------------0------0--|--0-------------------|--0------------------|
G||--------------1------1--|--1-------------------|--1------------------|
D||--------2--4------------|-------4------2-------|--2------------------|
A||--2--4------------------|-----------------4----|--2------------2--4--|
E||------------------------|----------------------|--0------------------|


                                                 ^                ^     
  E  E  Q.     E  Q       Q    E  E  H           Q    E  E  E  E  Q     
--------0------0--0----|-------------0--------|--0----0-----------0----|
--------0------0--0----|-------------0--------|--0----0--0--------0----|
--------1------1--1----|-------------1--------|--2-------2--2--2--2----|
--2--4-----------------|--4----2-----2--------|--2----------2-----2----|
-----------------------|----------4--2--------|--0----------------0----|
-----------------------|-------------0--------|------------------------|


              ^                   ^    ^    ^  v     ^        ^           
  E  E  E  E  Q    E  E     E  E  Q    Q    E  E     H        Q     Q     
--0-----------0----0-----|--------0----0----0--0--|--0--------0h----0----|
--0--0--------0----0--0--|-----0--0----0----0--0--|--0--------0-----0----|
-----2--2--2--2-------2--|--2--2--2----2----2--2--|--1--------1h----2----|
--------2-----2----------|--2-----2----2----2--2--|--2--------2h----2----|
--------------0----------|--------0----0----0--0--|--2--------2h----2----|
-------------------------|------------------------|--0--------0h----0----|


  W                  
--0----------------||
--0----------------||
--1----------------||
--2----------------||
--2----------------||
--0----------------||




Duration Legend
---------------
W - whole
H - half
Q - quarter
E - 8th
S - 16th
T - 32nd
X - 64th
. - note dotted
|-n-|  - n-tuplets


Tablature Legend
----------------
L - tied note
x - dead note
g - grace note
(n) - ghost note
> - accentuded note
NH - natural harmonic
AH - artificial harmonic
TH - tapped harmonic
SH - semi harmonic
PH - pitch harmonic
h - hammer on
p - pull off
b - bend
br - bendRelease
pb - preBend
pbr - preBendRelease
brb - bendReleaseBend
\n/ - tremolo bar dip
\n - tremolo bar dive
-/n - tremolo bar Release up
/n\ - tremolo bar inverted dip
/n - tremolo bar return
-\n - tremolo bar Release down
S - shift slide
s - legato slide
/ -  slide into from below or out of upwards
\ -  slide into from above or out of downwards
~ - vibrato
W - wide vibrato
tr - trill
TP - tremolo picking
T - tapping
S - slap
P - pop
< - fade in
^ - brush up
v - brush down
Добавлено: 23.02.2012
Другие материалы по этой песне:
  • Аккорды и текст

Страница создана 23.02.2012
http://primanota.ru/butch-walker/this-is-the-sweetest-little-song-chords.htm
Привет, Гость.
Предлагаем пройти революционный курс по гитаре.
Подарок от PrimaNota.Ru, забирай!