PrimaNota.ru - самый крупный в мире бесплатный архив песенных текстов, аккордов, табулатур и нот


Butch Walker - Last Flight Out - текст песни, таба, видео

Регистрация Запомнить меня
Войти через:  Facebook Google Twitter Vk Yandex Mail.ru

Butch Walker - Last Flight Out - текст песни, таба, видео

Печатать
Просмотров: 136
Авторы: Butch Walker

Butch Walker
"Last flight out"

Tabbed by Etni3s
etni3s@gmail.com

Tuning: EADGBe


Comments:
---------
 Requested by Epic.

 Capo on 3rd fret for album version. 2nd fret for live version.
 Tab is relative to capo placement.

 / - Slide up
 \ - slide down

 Have fun!
 // Etni3s


Song Progression:
-----------------

VERSE x3
CHORUS
VERSE x3 (Add the VERSE 2 stuff. 3rd guitar comes in mid verse)
CHORUS
BRIGDE INTRO / VERSE 2 ENDING
BRIDGE
BRIDGE ENDING 
CHORUS
OUTRO PART 1 x3 (Guitar 3 comes in 3rd time)
OUTRO PART 2 x4 (Guitar 2 comes in at the end)


VERSE
-------------

e|-----------------------------------------------------------------|
B|-----------------------------------------------------------------|
G|-----------------------------------------------------------------|
D|-----------------------------------------------------------------|
A|-6-6-6-6-6-6-6-7-7-7-7-7-7-7-7-7-6-6-6-6-6-6/9-7-7-7-7-7-7-7-7-7-|
E|-0-0-0-0-0-0-0-0-0-0-0-0-0-0-0-0-0-0-0-0-0-0-0-0-0-0-0-0-0-0-0-0-|

e|-----------------------------------------------------------------|
B|-----------------------------------------------------------------|
G|-------------------4---4-----4-----------------------------------|
D|-6-6-6-6-6-6-6-4-4-4-4-4-4-4-4-4---------------------------------|
A|-0-0-0-0-0-0-0-0-0-0-0-0-0-0-0-0-6-6-6-6-6-4-6-7-7-7-7-7-7-9-7-7-|
E|---------------------------------0-0-0-0-0-0-0-0-0-0-0-0-0-0-0-0-|


CHORUS
------

e|-----------------------------------------------------------------|
B|-----------------------------------------------------------------|
G|-----------------------------------------------------------------|
D|-7-7-7-7-7-7-7-7-7-7-7-7-7-7-7-7-6-6-6-6-6-6-6-6-6-6-6-6-6-6-6-6-|
A|-7-7-7-7-7-7-7-7-7-7-7-7-7-7-7-7-7-7-7-7-7-7-7-7-7-7-7-7-7-7-7-7-|
E|-5-5-5-5-5-5-5-5-5-5-5-5-5-5-5-5-4-4-4-4-4-4-4-4-4-4-4-4-4-4-4-4-|

e|-----------------------------------------------------------------|
B|-----------------------------------------------------------------|
G|-----------------------------------------------------------------|
D|-4-4-4-4-4-4-4-4-4-4-4-4-4-4-6-6-6-7-7-7-7-7-7-7-7-7-7-7-7-7-7-7-|
A|-4-4-4-4-4-4-4-4-4-4-4-4-4-4-6-6-6-7-7-7-7-7-7-7-7-7-7-7-7-7-7-7-|
E|-2-2-2-2-2-2-2-2-2-2-2-2-2-2-4-4-4-5-5-5-5-5-5-5-5-5-5-5-5-5-5-5-|

VERSE 2 (Guitars 2 & 3 only)
----------------------------

Guitar 2:

e|-0-----|
B|---4---|
G|-----4-|  a gazillion times..
D|-------|
A|-------|
E|-------|

Guitar 3:

e|--------------------------------------------------------------------|
B|--------------------------------------------------------------------|
G|---------1---4--/8-----------1---4--/8---9---8--\4---1--------------|
D|-----4-------------------4-------------------------------4---2\1----|
A|-2-------------------2--------------------------------------------2-|
E|--------------------------------------------------------------------|


BRIGDE INTRO / VERSE 2 ENDING
-----------------------------

Guitar 1:

e|-----------------------------------------------------------------|
B|-----------------------------------------------------------------|
G|-----------------------------------------------------------------|
D|-----------------------------------------------------------------|
A|-6-6-6-6-6-6-6-7-7-7-7-7-7-7-7-7-6-6-6-6-6-6/9-7-7-7-7-7-7-7-7-7-|
E|-0-0-0-0-0-0-0-0-0-0-0-0-0-0-0-0-0-0-0-0-0-0-0-0-0-0-0-0-0-0-0-0-|

Guitar 2:

e|-------0-------------------0---------------0---------------0-----|
B|---------------4---------------4-------------------4-----------4-|
G|-4---------------------4-----------4-------------------4---------|
D|-----------------------------------------------------------------|
A|-----------------------------------------------------------------|
E|-----------------------------------------------------------------|


BRIGDE
------

e|--------------------------------------------------|
B|--------------------------------------------------|
G|------------------6---6---6-6-6-4---4-4---4-4-4-4-|
D|-4---6---7--------6---6---6-6-6-4---4-4---4-4-4-4-|
A|-4---6---7--------4---4---4-4-4-2---2-2---2-2-2-2-|
E|-2---4---5----------------------------------------|


BRIDGE ENDING
-------------

e|-----------------|
B|-----------------|
G|-4-4-4-4-4-4-4-4-| etc...
D|-4-4-4-4-4-4-4-4-|
A|-2-2-2-2-2-2-2-2-|
E|-----------------|

e|-------------------------------------------------------------|
B|-------------------------------------------------------------|
G|-------------------------------------------------------------|
D|-------------------------------------------------------------|
A|-9-9-9-9-9-9-9-7-7-7-7-7-7-7-7-7-6-6-6-6-6-6-6-7-7-7-7-7-7-7-|
E|-0-0-0-0-0-0-0-0-0-0-0-0-0-0-0-0-0-0-0-0-0-0-0-0-0-0-0-0-0-0-|


OUTRO PART 1
------------

Guitar 1:

e|-----------------------------------------------------------------|
B|-----------------------------------------------------------------|
G|-----------------------------------------------------------------|
D|-----------------------------------------------------------------|
A|-6-6-6-6-6-6-6-7-7-7-7-7-7-7-7-7-6-6-6-6-6-6/9-7-7-7-7-7-7-7-7-7-|
E|-0-0-0-0-0-0-0-0-0-0-0-0-0-0-0-0-0-0-0-0-0-0-0-0-0-0-0-0-0-0-0-0-|

Guitar 2:

e|---------0-------------------0---------------0---------------0-----|
B|-----------------4---------------4-------------------4-----------4-|
G|-4-----------------------4-----------4-------------------4---------|
D|-------------------------------------------------------------------|
A|-------------------------------------------------------------------|
E|-------------------------------------------------------------------|

Guitar 3:

e|--------------------------------------------------------------------|
B|--------------------------------------------------------------------|
G|---------1---4--/8-----------1---4--/8---9---8--\4---1--------------|
D|-----4-------------------4-------------------------------4---2\1----|
A|-2-------------------2--------------------------------------------2-|
E|--------------------------------------------------------------------|


OUTRO PART 2
------------

Guitar 1:

e|---------|
B|---------|
G|---------|
D|-4--6--7-|
A|-4--6--7-|
E|-2--4--5-|

Guitar 2

e|-0-----|
B|---4---|
G|-----4-|  a million times..
D|-------|
A|-------|
E|-------|
Добавлено: 17.03.2012
Другие материалы по этой песне:
  • Аккорды и текст

Страница создана 22.02.2012
http://primanota.ru/butch-walker/last-flight-out-chords.htm
Привет, Гость.
Предлагаем пройти революционный курс по гитаре.
Подарок от PrimaNota.Ru, забирай!