PrimaNota.ru - самый крупный в мире бесплатный архив песенных текстов, аккордов, табулатур и нот


Butch Walker - Ladies And Gentlemen - таба, видео

Регистрация Запомнить меня
Войти через:  Facebook Google Twitter Vk Yandex Mail.ru

Butch Walker - Ladies And Gentlemen - таба, видео

Печатать
Просмотров: 149
Уроки эстрадного вокала в Санкт-Петербурге
Ladies and Gentlemen by Butch Walker and the lets go out tonite

Intro

e|--5--5---7---7---5---8---5---5-|
B|--5--5---9---9---6---6---5---5-|
G|--5--5---x---x---5---5---5---5-|
D|--7--7---9---9---7---7---7---7-|
A|-0--0---7---7---5---5---0---0--|
E|-------------------------------|

Verse(clean)

e|-5--7--5--5-|
B|-5--9--6--5-|
G|-5--x--5--5-|
D|-7--9--7--7-|
A|-0--7--5--0-|
E|------------|

Pre-Chorus
e|--5--5--------|
B|---6----9---9-|
G|--------------|
D|----------9---|
A|-5------7-----|
E|--------------|

Chorus
e|-3--3--5--5----|
B|-5--3--6--5----|
G|-5--4--7--5----|
D|-5--5--7--7-5--|
A|-3--5--5--7-5--|
E|----3-----5-3--|

back to intro as interlude

Verses is same thing as verse 1

interlude

Solo
e|----------------------------------------------|
B|-------------------------5------6------5------|
G|-------4---4-5-4-5-7-5-7---5------5------5----|
D|-7-6-7---7-------------------6------7------6--| X2
A|----------------------------------------------|
E|----------------------------------------------|

e|----------------------------13-13-13-15-13-15-13-12-10-8-7--|
B|------------------------------------------------------------|
G|-10-10-10-12-10-12-10-9-7-9---------------------------------|
D|------------------------------------------------------------|
A|------------------------------------------------------------|
E|------------------------------------------------------------|

back to chorus

ending
e|-----------------------------5-|
B|-----------------------------5-|
G|-9-7-5-4-5-4~--1-2-4-5-4--2--5-|
D|-------------------------2---7-|
A|-----------------------------0-|
E|-------------------------------|
Добавлено: 10.07.2012
Другие материалы по этой песне:
  • Аккорды и текст

Страница создана 10.07.2012
http://primanota.ru/butch-walker/ladies-and-gentlemen-chords.htm
Привет, Гость.
Предлагаем пройти революционный курс по гитаре.
Подарок от PrimaNota.Ru, забирай!