PrimaNota.ru - самый крупный в мире бесплатный архив песенных текстов, аккордов, табулатур и нот


Butch Walker - If Jeannies Song - текст песни, таба, видео

Регистрация Запомнить меня
Войти через:  Facebook Google Twitter Vk Yandex Mail.ru

Butch Walker - If Jeannies Song - текст песни, таба, видео

Печатать
Просмотров: 160
Уроки эстрадного вокала в Санкт-Петербурге
-------------------------------------------------------------------------------
                             If - Butch Walker
-------------------------------------------------------------------------------
Tabbed by: ilovemygibsonlp (for UG tabs)
Email: ilovemygibsonlp@aim.com

Quick note: this is my favorite Butch Walker song :) 
There wasnt a tab for it, so i decided to put mine up :D 
Ill have the solo up as soon as I get it down. 

Tuning: Drop D

Intro/Verses:
e|------------------------------------------------------------|
B|----------3-------------3----------3--------------3---------|
G|-------0--0----------0--0-------0--0-----------0--0---------|
D|----4-------------4-----------4--------------4--------------|
A|-5-------------5-----------5--------------5-----------------|
D|------------5-----------0--------------0--------------------|

First Chorus (Palm Muted)
e|------------------------------------------------------------------|
B|------------------------------------------------------------------| 
G|------------------------------------------------------------------| 
D|------------------------------------------------------------------| 
A|-3-3-3-3-3-3-3-3--------------------------------------------------|  
D|-----------------5-5-5-5-5-5-5-5-0-0-0-0-0-0-0-0-0-0-0-0-0-0-0-0--| 

e|------------------------------------------------------------------|
B|------------------------------------------------------------------| 
G|------------------------------------------------------------------| 
D|------------------------------------------------------------------| 
A|-3-3-3-3-3-3-3-3--------------------------------------------------|  
D|-----------------5-5-5-5-5-5-5-5-0-0-0-0-0-0-0-0-0-0-0-0-0-0-0-0--|

e|------------------------------------------------------------------|
B|------------------------------------------------------------------|
G|------------------------------------------------------------------|
D|------------------------------------------------------------------|
A|-3-3-3-3-3-3-3-3--------------------------------------------------|
D|-----------------5-5-5-5-5-5-5-5-0-0-0-0-0-0-0-0-2-2-2-2-2-2-2-2--|

e|------------------------------------------------------------------|
B|------------------------------------------------------------------| 
G|------------------------------------------------------------------| 
D|------------------------------------------------------------------| 
A|-3-3-3-3-3-3-3-3-----------------------------------------------5--|  
D|-----------------5-5-5-5-5-5-5-5-0-0-0-0-0-0-0-0-0-0-0-0-0-0-0-0--|

Verse 2:

Electric guitar comes in :D
This part is all natural harmonics!
e|-------------------------------------------|
B|-7--7-7-7--7-7-7--7-7-7--------------------|
G|------------------------7------------------|
D|-------------------------------------------|
A|-------------------------------------------|
D|-------------------------------------------|

Chorus 2: 
e|------------------------------------------------------------------|
B|------------------------------------------------------------------| 
G|-5-5-5-5-5-5-5-5--------------------------------------------------| 
D|-5-5-5-5-5-5-5-5-5-5-5-5-5-5-5-5-0-0-0-0-0-0-0-0-0-0-0-0-0-0-0-0--| 
A|-3-3-3-3-3-3-3-3-5-5-5-5-5-5-5-5-0-0-0-0-0-0-0-0-0-0-0-0-0-0-0-0--|  
D|-----------------5-5-5-5-5-5-5-5-0-0-0-0-0-0-0-0-0-0-0-0-0-0-0-0--|

e|-------------------------------------------------------------------------|
B|-------------------------------------------------------------------------| 
G|-5-5-5-5-5-5-5-5-----------------------11/12\11/12\11-------11/12\11-9-7-| 
D|-5-5-5-5-5-5-5-5-5-5-5-5-5-5-5-5-------x-/xx\x-/xx\x--------x-/xx\x--x-x-| 
A|-3-3-3-3-3-3-3-3-5-5-5-5-5-5-5-5-------9-/10\9-/10\9--------9-/10\9--7-5-|  
D|-----------------5-5-5-5-5-5-5-5-0-0-0----------------0-0-0--------------|

e|------------------------------------------------------------------|
B|------------------------------------------------------------------| 
G|-5-5-5-5-5-5-5-5--------------------------------------------------| 
D|-5-5-5-5-5-5-5-5-5-5-5-5-5-5-5-5-0-0-0-0-0-0-0-0-2-2-2-2-2-2-2-2--| 
A|-3-3-3-3-3-3-3-3-5-5-5-5-5-5-5-5-0-0-0-0-0-0-0-0-2-2-2-2-2-2-2-2--|  
D|-----------------5-5-5-5-5-5-5-5-0-0-0-0-0-0-0-0-2-2-2-2-2-2-2-2--| 

e|------------------------------------------------------------------|
B|------------------------------------------------------------------| 
G|-5-5-5-5-5-5-5-5--------------------------------------------------| 
D|-5-5-5-5-5-5-5-5-5-5-5-5-5-5-5-5-0-0-0-0-0-0-0-0-0-0-0-0-0-0-0-0--| 
A|-3-3-3-3-3-3-3-3-5-5-5-5-5-5-5-5-0-0-0-0-0-0-0-0-0-0-0-0-0-0-0-0--|  
D|-----------------5-5-5-5-5-5-5-5-0-0-0-0-0-0-0-0-0-0-0-0-0-0-0-0--|

Solo:
e|------------------------------------------------------------------|
B|------------------------------------------------------------------| 
G|-5-5-5-5-5-5-5-5--------------------------------------------------| 
D|-5-5-5-5-5-5-5-5-5-5-5-5-5-5-5-5-0-0-0-0-0-0-0-0-2-2-2-2-2-2-2-2--| 
A|-3-3-3-3-3-3-3-3-5-5-5-5-5-5-5-5-0-0-0-0-0-0-0-0-2-2-2-2-2-2-2-2--|  
D|-----------------5-5-5-5-5-5-5-5-0-0-0-0-0-0-0-0-2-2-2-2-2-2-2-2--|

Bridge:Palm mute it :)
e|-----------------------------------------------------------------------|
B|-----------------------------------------------------------------------|
G|-----------------------------------------------------------------------|
D|---------------------5-5-5-5-5-5-5-5-----------------------------------|
A|-2-2-2-2-2-2-2-2-----3-3-3-3-3-3-3-3-5-5-5-5-5-5-5-5-5-5-5-5-5-5-5-5---|
D|-2-2-2-2-2-2-2-2---------------------5-5-5-5-5-5-5-5-4-4-4-4-4-4-4-4---|

Now just play the Chorus, play your heart out, and you might be the next Butch Walker. :)

************************************

| /   slide up
| \   slide down
| h   hammer-on
| p   pull-off
| ~   vibrato
| +   harmonic
| x   Mute note
| b   Bend
| pb  Pre-bend
| br  Bend release
| pbr Pre-bend release
| brb Bend release bend

************************************
Добавлено: 13.06.2012
Другие материалы по этой песне:
  • Аккорды и текст

Страница создана 13.06.2012
http://primanota.ru/butch-walker/if-jeannies-song-chords.htm
Привет, Гость.
Предлагаем пройти революционный курс по гитаре.
Подарок от PrimaNota.Ru, забирай!