PrimaNota.ru - самый крупный в мире бесплатный архив песенных текстов, аккордов, табулатур и нот


Busted - You Said No - текст песни, таба, бас-таба, видео

Регистрация Запомнить меня
Войти через:  Facebook Google Twitter Vk Yandex Mail.ru

Busted - You Said No - текст песни, таба, бас-таба, видео

Печатать
Просмотров: 214
Уроки эстрадного вокала в Санкт-Петербурге
Авторы: Graham Jay, James Bourne, Stephen Robson, Charlie Simpson, John McLaughlin



Intro/Verses :

E :-----------------------------------------------------------------------------
B :-----------------------------------------------------------------------------
G :----------------------------------------------9-9-9-9-9----------------------
D :-9-x-x-9-x-x-9--9-x-x-9-x-x-9--6-x-x-6-x-x-6--9-9-9-9-9----------------------
A :-9-x-x-9-x-x-9--9-x-x-9-x-x-9--6-x-x-6-x-x-6--7-7-7-7-7-6-2------------------
E :-7-x-x-7-x-x-7--6-x-x-6-x-x-6--4-x-x-4-x-x-4---------------------------------


Pre Chorus :

E :-----------------------------------------------------------------------------
B :-----------------------------------------------------------------------------
G :-------------------------9--11-----------------------------------------------
D :-9-9-9-9-9-9-9-9-9-9--9--9--11-----------------------------------------------
A :-9-9-9-9-9-9-9-9-9-9--9--7--9------------------------------------------------
E :-7-7-7-7-7-7-7-7-7-7--7------------------------------------------------------


Chorus :

E :-----------------------------------------------------------------------------
B :-----------------------------------------------------------------------------
G :--------------------------------------9--9--9--8-----------------------------
D :-9-9-9-9-9-9-9-9-9-9-9-9-6-6-6-6-6-6--9--9--9--8-----------------------------
A :-9-9-9-9-9-9-9-9-9-9-9-9-6-6-6-6-6-6--7--7--7--6-----------------------------
E :-7-7-7-7-7-7-6-6-6-6-6-6-4-4-4-4-4-4-----------------------------------------


E :-----------------------------------------------------------------------------
B :-----------------------------------------------------------------------------
G :---------------------------------------9-9-9-9--8-8-8-8--9-9-9-9-------------
D :-9-9-9-9-9-9-9-9-9-9-9-9-6-6-6-6-6-6---9-9-9-9--8-8-8-8--9-9-9-9--9----------
A :-9-9-9-9-9-9-9-9-9-9-9-9-6-6-6-6-6-6---7-7-7-7--6-6-6-6--7-7-7-7--9----------
E :-7-7-7-7-7-7-6-6-6-6-6-6-4-4-4-4-4-4------------------------------7----------


Brigde :

E :-----------------------------------------------------------------------------
B :-----------------------------------------------------------------------------
G :-----------------------------------------------------------------------------
D :-9-9-9-9-9--8--9-9-9-9-9--8--9-9-9-9-9--8--9-9-9-9-9--8--9-9-9-9-9--8--------
A :-9-9-9-9-9--8--9-9-9-9-9--8--9-9-9-9-9--8--9-9-9-9-9--8--9-9-9-9-9--8--------
E :-7-7-7-7-7--6--7-7-7-7-7--6--7-7-7-7-7--6--7-7-7-7-7--6--7-7-7-7-7--6--------


E :-----------------------------------------------------------------------------
B :-----------------------------------------------------------------------------
G :-11-11-11-11---------------11-11-11-11--9--7--5--3--5--3--3------------------
D :-11-11-11-11--14-14-14-14--11-11-11-11--9--7--5--3--5--3--3------------------
A :--9--9--9--9--14-14-14-14---9--9--9--9--7--5--3--1--3--1--1------------------
E :--------------12-12-12-12----------------------------------------------------


At the part where thay go nah , nah , nah , nah you play the same as the verse.

Добавлено: 15.01.2014
Другие материалы по этой песне:
  • Аккорды и текст

Страница создана 04.06.2012
http://primanota.ru/busted/you-said-no-chords.htm
Привет, Гость.
Предлагаем пройти революционный курс по гитаре.
Подарок от PrimaNota.Ru, забирай!