PrimaNota.ru - самый крупный в мире бесплатный архив песенных текстов, аккордов, табулатур и нот


Bush - Synapse - аккорды и текст, таба, бас-таба, видео

Регистрация Запомнить меня
Войти через:  Facebook Google Twitter Vk Yandex Mail.ru

Bush - Synapse - аккорды и текст, таба, бас-таба, видео

Печатать
Просмотров: 169
Авторы музыки: Gavin Rossdale
Авторы текста: Gavin Rossdale
Synapse
Bush
song   : Synapse
author : Gavin Rossdale
band   : Bush
album  : Razorblade Suitcase
tunning: Normal
transcribed: Alex M. =20


 Intro:        x3   =20
e |----------------------------|-------------------
B |----------------------------|-------------------
G |----------------------------|-------------------
D |-3-3-3-3-3-3---7-7-7--7-7-7-|-3-3-3-3-3-3---7---
A |-3-3-3-3-3-3---7-7-7--7-7-7-|-3-3-3-3-3-3---7---
E |-1-1-1-1-1-1---5-5-5--5-5-5-|-1-1-1-1-1-1---5---
                                   let ring----^

Verse:  repeat =20
e |------------------------------------------------
B |------------------------------------------------
G |------------------------------------------------
D |-3-3-3-3-3-3---7-7-7--7-7-7---------------------
A |-3-3-3-3-3-3---7-7-7--7-7-7---------------------
E |-1-1-1-1-1-1---5-5-5--5-5-5---------------------

Right before the chorus, there's a 2nd guitar that plays
a melody fill... and here's what it is

|-------------------------------------------------------
|---------------0/0-------------------------------------
|---2-----2-----2/4--2--2-------------------------------
|------3-----3----------2-------------------------------
|-----------------------0-------------------------------
|-------------------------------------------------------
Chours:           x5
e |-------------------------------------------------
B |-------------------------------------------------
G |-------------------------------------------------
D |-3-3-3-3-3-3--7--7-7-7-7-7-7---------------------
A |-3-3-3-3-3-3--7--7-7-7-7-7-7---------------------
E |-1-1-1-1-1-1--5--5-5-5-5-5-5---------------------
     stroke up---^   =20
|-------------------------------------------------------
|-------------------------------------------------------
|-5-5-5-5-5-5-5-5---2-2-2-2-2-2-2-2--5-5-5-5-5-5-5-5--2-
|-5-5-5-5-5-5-5-5---2-2-2-2-2-2-2-2--5-5-5-5-5-5-5-5--2-
|-3-3-3-3-3-3-3-3---0-0-0-0-0-0-0-0--3-3-3-3-3-3-3-3--0-
|-------------------------------------------------------
                                       let ring---------^
Chours: 2nd time    x5
e |-------------------------------------------------
B |-------------------------------------------------
G |-------------------------------------------------
D |-3-3-3-3-3-3--7--7-7-7-7-7-7---------------------
A |-3-3-3-3-3-3--7--7-7-7-7-7-7---------------------
E |-1-1-1-1-1-1--5--5-5-5-5-5-5---------------------
     stroke up---^   =20
|-----------------------------------------------------
|-----------------------------------------------------
|-5-5-5-5-5-5-5-5---2-2-2-2-2-2-2-2--5-5-5-5-5-5-5-5--
|-5-5-5-5-5-5-5-5---2-2-2-2-2-2-2-2--5-5-5-5-5-5-5-5--
|-3-3-3-3-3-3-3-3---0-0-0-0-0-0-0-0--3-3-3-3-3-3-3-3--

|-------------------------------------------------------
|-------------------------------------------------------
|-2-2-2-2-2-2-2-2---------------------------------------
|-2-2-2-2-2-2-2-2---------------------------------------
|-0-0-0-0-0-0-0-0---------------------------------------
|-------------------------------------------------------
  ^--------------^-- fade from soft to loud   =20

Outro:     repeat
e |----------------------------|---------------------
B |----------------------------|---------------------
G |----------------------------|---------------------
D |-3-3-3-3-3-3---7-7-7-7-7-7--|-3-------------------
A |-3-3-3-3-3-3---7-7-7-7-7-7--|-3-------------------
E |-1-1-1-1-1-1---5-5-5-5-5-5--|-1-------------------
                                 ^--let ring fade out =20

--------------------------------------------------------------

     
Добавлено: 26.06.2013
Другие материалы по этой песне:
  • Аккорды и текст

Страница создана 22.04.2012
http://primanota.ru/bush/synapse-chords.htm
Привет, Гость.
Предлагаем пройти революционный курс по гитаре.
Подарок от PrimaNota.Ru, забирай!