PrimaNota.ru - самый крупный в мире бесплатный архив песенных текстов, аккордов, табулатур и нот


Bush - Personal Holloway - аккорды и текст, таба, бас-таба, видео

Регистрация Запомнить меня
Войти через:  Facebook Google Twitter Vk Yandex Mail.ru

Bush - Personal Holloway - аккорды и текст, таба, бас-таба, видео

Печатать
Просмотров: 198
Авторы музыки: Gavin Rossdale
Авторы текста: Gavin Rossdale
Personal Holloway
Bush
Bush
Personal Holloway
Razorblade Suitcase
Tabbed by Joe Hale

Intro/chorus
e|---------------------------|
b|---------------------------|
g|---------------------------|
d|-4-4-4-4/9-9-7-7-7-7-7/9-9-|
a|-4-4-4-4/9-9-7-7-7-7-7/9-9-|
e|-2-2-2-2/7-7-5-5-5-5-5/7-7-|

then let this ring
d|-4-|
a|-4-|
e|-2-|

guitar 2 lets this note feedback
g|-16-|

Verse
guitar 1(comes in with "and drinking kitchen paint")
e|----------------------------------|
b|----------------------------------|
g|----------------------------------|
d|-/9-9-9-9-9-9-9-9\7-7-7-7-7-7-7-7-|
a|-/9-9-9-9-9-9-9-9\7-7-7-7-7-7-7-7-|
e|-/7-7-7-7-7-7-7-7\5-5-5-5-5-5-5-5-|
    play this three times, then play this once:

e|-------------------------|
b|-------------------------|
g|-----------------9-9-9-9-|
d|-4-4-4-4-4-4-4-4-9-9-9-9-|
a|-4-4-4-4-4-4-4-4-7-7-7-7-|
e|-2-2-2-2-2-2-2-2---------|


guitar 2(comes in with "she's blue in the face again")
g|-4-4-4-4-4-4-4-4p2-2-2-2-2-2-2h4-| play this three times

g|-4-4-4-4-4-4-4-9-9-9-9-| play this once

during the chorus, when Gavin starts to sing "married by 
signs" and towards the end when he sings "could be a better
plan" both guitars play this:

e|-------------------|
b|-------------------|
g|-------------------|
d|-4-4-4/9-9\7-7-7-9-|
a|-4-4-4/9-9\7-7-7-9-|
e|-2-2-2/7-7\5-5-5-7-|

there's also another part that goes like this:
e|-------------------------|
b|-------------------------|
g|-9-5-7-------------------|
d|-9-5-7-------------------|
a|-7-3-5-5-5-5-5-5-5-5-5-5-|
e|-------------------------|

then when gavin says "move a little way" do this:
e|---------------------------------|
b|---------------------------------|
g|-5-------------------------------|
d|-5-------------------------------|
a|-3-3-3-3-3-3-3-3-3-3-3-3-3-3-3-3-|
e|---------------------------------|
guitar 2 just lets that chord ring

end on
d|-4-|
a|-4-|
e|-2-| 

Joe Hale
chlorine@theonramp.net


     
Добавлено: 19.08.2013
Другие материалы по этой песне:
  • Аккорды и текст

Страница создана 12.05.2012
http://primanota.ru/bush/personal-holloway-chords.htm
Привет, Гость.
Предлагаем пройти революционный курс по гитаре.
Подарок от PrimaNota.Ru, забирай!